Cifra Club

Fast Wie Im Film

Die Toten Hosen

Cifrado: Principal (guitarra y guitarra eléctrica)
Selo Cifra Club: esta cifra foi revisada para atender aos critérios oficiais da nossa Equipe de Qualidade.
tono: D
    A     E    Fism   D   "C#/D"  Hm
E|1| :--0--|--0--|--2--|--*--|--*--|--2--|
B|2| :--2--|--0--|--2--|--7--|--*--|--3--|
G|3| :--2--|--2--|--2--|--7--|--7--|--4--|
D|4| :--2--|--2--|--4--|--7--|--7--|--4--|
A|5| :--0--|--1--|--4--|--5--|--4--|--2--|
E|6| :--x--|--0--|--2--|--0--|--x--|--x--|

Intro- sowie Strophenablauf

   A         E         Fism
E|1| :---------|---------|---------|
B|2| :-----2---|---------|-----2---|
G|3| :-------2-|-----1---|-----2---|
D|4| :---2-----|-------2-|---------|
A|5| :-0-------|---2-----|---4-----|
E|6| :---------|-0-------|-2-------|

   A         E         Fism
E|1| :---------|---------|---------|
B|2| :-----2---|---------|---------|
G|3| :-------2-|-----1---|---------|
D|4| :---2-----|-------2-|-4-------|
A|5| :-0-------|---2-----|-4-------|
E|6| :---------|-0-------|-2-------|

---
der 2. Teil vom Strophenablauf

   D        "D/C#"     Hm
E|1| :---------|---------|---------|
B|2| :-----7---|---------|-----3---|
G|3| :-------7-|-----7---|-----4---|
D|4| :---7-----|---7---7-|---4-----|
A|5| :-5-------|-4-------|-2-------|
E|6| :---------|---------|---------|
   D                   E
E|1| :---------|---------|---------|---------|
B|2| :-----7---|---7-----|---------|-----0---|
G|3| :-------7-|-----7---|-----1---|-2-------|
D|4| :---7-----|-7-----7-|-------2-|---2---2-|
A|5| :-5-------|---------|---2-----|---------|
E|6| :---------|---------|-0-------|---------|

---
Refrain-Ende:
             G                   Fism
E|1| :---------|---------|---------|-2-------|
B|2| :---------|---------|---------|-2-------|
G|3| :---------|-----4---|---4-----|-2-------|
D|4| :---------|-------5-|---5-----|---------|
A|5| :---------|---5-----|-5-------|---------|
E|6| :-----0-2-|-3-------|---------|---------|

---
Intro:

A E Fism

A E Fism

1. Strophe:
   A         E       F#m   A        E       F#m
An besonders schönen Tagen kann man sie oft sehn
    D           D/C#*  Hm
man braucht nur in den Himmel zu schaun,
        D                   E
wo sie wie kleine Punkte aussehn


2. Strophe:
A    E      F#m         A         E       F#m
Ohne klare Richtung von hier nach da nach hier
D      D/C#      Hm                  D                   E
lauter glücklich Liebende fliegen im Wind wie Papier

Refrain:

D                   A        E        Hm
Als wären sie schon ewig für einander bestimmt
D                 A
Fast zu schön, um wahr zu sein
G           F#m
Fast wie im Film

3. Strophe:

A         E     F#m   A               E         F#m
An regnerischen Tagen kann man sie vom Ufer aus sehen
        D       D/C#      Hm
wie sie Hand in Hand flussabwärts fahren
    D             E
auf Schiffen ohne Ziel

Refrain:

D                   A        E        Hm
Als wären sie schon ewig für einander bestimmt
D                 A
Fast zu schön, um wahr zu sein
G           F#m
Fast wie im Film

Outro:
D A E hm
D A G  F#m
Otros videos de esta canción
    0 exhibiciones
      • ½ Tono
      • A
      • Bb
      • B
      • C
      • Db
      • D
      • Eb
      • E
      • F
      • F#
      • G
      • Ab
    • Agregar a la lista

    Afinação da cifra

    Afinador online

      Ops (: Contenido disponible solo en portugués.
      OK