Cifra Club

Original of the Species

U2

Cifrado: Principal (guitarra y guitarra eléctrica)
tono: A
[Intro]

E|----2--0----------2--4----------|
B|2----------0--2----------7------|
G|--------------------------------|
D|--------------------------------|
A|0--------------------4----------|
E|-------0------2-----------------|

A              E
  Baby slow down
F#m                 C#m              A
  The end is not as fun as the start
                E               F#m        C#m
Please stay a child somewhere in your heart

G                   D          A
  I’ll give you everything you want
G              D            A
  Except the thing that you want
Am               C               A
  You are the first one of your kind

[Riff]

E|---------------------------|
B|---------------------------|
G|-4-2-5-4-7-5-9-7-9~~-------|
D|---------------------------|
A|---------------------------|
E|---------------------------|

A                 F#m
And you feel like no-one before
        C#m     E
You steal right under my door
          A         F#m
And I kneel 'cos I want you some more
           C#m 
I want the lot of what you got
                  E
And I want nothing that you’re not

A                 F#m            C#m
  Everywhere you go you shout it
                        E          A
You don’t have to be shy about it

E|----2--0----------2--4----------|
B|2----------0--2----------7------|
G|--------------------------------|
D|--------------------------------|
A|0--------------------4----------|
E|-------0------2-----------------|

A                                 E
  Some things you shouldn’t get too good at
F#m                        C#m 
  Like smiling, crying and celebrity
A                    E                    F#m       C#m
  Some people got way too much confidence baby, baby

G                 D             A
  I’ll give you everything you want
G             D               A
  Except the thing that you want
Am                C              A
  You are the first one of your kind

[Riff]

E|---------------------------|
B|---------------------------|
G|-4-2-5-4-7-5-9-7-9~~-------|
D|---------------------------|
A|---------------------------|
E|---------------------------|

A                   F#m
  And you feel like no-one before
        C#m     E
You steal right under my door
      A             F#m
I kneel 'cos I want you some more
            C#m 
I want the lot of what you got
             E
And I want nothing that you’re not

A                   F#m         C#m
  Everywhere you go you shout it
                      E            A
You don’t have to be shy about it, no

E|----2--0----------2--4----------|
B|2----------0--2----------7------|
G|--------------------------------|
D|--------------------------------|
A|0--------------------4----------|
E|-------0------2-----------------|

G            D              A
Do do, do do, do do, do do, do do, do do, do do, do do
G            D              A
Do do, do do, do do, do do, do do, do do, do do, do do

G               D           A
  Sugar Come on show  your soul
                          G     D     A
You’ve been keeping your love under control

A                F#m         C#m
  Everywhere you go you shout it
                      E           A
You don’t have to be shy about it
A                F#m           C#m
  Everywhere you go you shout it
        E          A
Oh my my

A                   F#m
  And you feel like no-one before
         C#m     E
You steal right under my door
       A        C#m
I kneel 'cos I want you some more
     D
And I want you some more
     Bm
I want you some more

     A     C#m    D      C#m    A
Oh no, oh no, oh no, oh no
Composición de Adam Clayton / Bono / Larry Mullen, Jr. / The Edge
Colaboración y revisión:
  • Giordanno Nunes
  • Daniel Castro
  • Pedro Ostetti
1.041 vistas
    • ½ Tono
    • A
    • Bb
    • B
    • C
    • Db
    • D
    • Eb
    • E
    • F
    • F#
    • G
    • Ab
  • Agregar a la lista

    0 comentarios

    Ver todos los comentarios

    ¿Lograste tocar?

    8 Tocaron 1 Aún no

    ¡Graba un video tocando Original of the Species y envíanoslo!

    00:00 / 00:00
    Outros vídeos desta música
    Repetir Calidad Automático
    Outros vídeos desta música
    00:00 / 00:00
    Automático
    OK