Cifra Club

A Fault Line a Fault Of Mine

Underoath

Tab de bajo: Principal
Já pensou em usar uma coleção de roupas do Cifra Club? Responda as perguntas abaixo e nos ajude nessa missão! →
(afinação D)

(verse x2)
G|--------------------------------------|
D|--------------------------------------|
A|55555555----------222222-333333-------|
D|---------77777777---------------------|
 x2
G|-------------------------------------|
D|-------------------------------------|
A|-------------------------------------|
D|00000000-77777777-222222-333333------|

(pause)
 
(chorus)
G|--------------------------------------------------------------------------|
D|--------------------------------------------------------------------------|
A|88888888----------77777777-88888888--88888888----------77777777-5555555---|
D|---------77777777-----------------------------77777777--------------------|

(verse x2)

(chorus)
G|--------------------------------------------------------------------|
D|--------------------------------------------------------------------|
A|88888888----------77777777-88888888--88888888----------777777777777-|
D|---------77777777-----------------------------77777777--------------|

G|----------------------|
D|----------------------|
A|----------------------|
D|3-2-3-2-5---7~--------|

(bridge x4) (2.01)
G|------------------------|
D|------------------------|
A|----5--3~---/8----------|
D|7~----------------------|

 x4
G|-------------------------------|
D|-------------------------------|
A|---------5--3-3-3-3--/88-------|
D|7-7-7-7------------------------|

 x4
G|--------------------------------------------------|
D|--------------------------------------------------|
A|-----------------5-3333333333333333-888888888-----|
D|7777777777777777----------------------------------|

(end off)
G|---------------|
D|---------------|
A|---------------|
D|7~-------------|
Composición de Underøath
Colaboración y revisión:
  • Élison Duarte
16 vistas

0 comentarios

Ver todos los comentarios

¿Lograste tocar?

0 Tocaron 0 Aún no

¡Graba un video tocando A Fault Line a Fault Of Mine y envíanoslo!

00:00 / 00:00
Outros vídeos desta música
Repetir Calidad Automático
Outros vídeos desta música
00:00 / 00:00
Automático
OK