Cifra Club

Let Me Hear - Kiseijuu: Sei No Kakuritsu

Uzi - Animes

Cifrado: Principal (guitarra y guitarra eléctrica)
tono: A
E|----------------------------------| --------------------------------|
B|----------------------------------| --------------------------------|
G|-----8-------6-----------9-8------| -----8-------6-----------9-8----|
D|-6-6---6-9-6---6-9-6-8-6-----9----| -6-6---6-9-6---6-9-6-8-6-----9--|
A|----------------------------------| --------------------------------|
E|----------------------------------| --------------------------------|
   * *   *   *   *   *   *            * *   *   *   *   *   *

E|----------------------------------| ---------------------------------|
B|----------------------------------| ---------------------------------|
G|-----8----------------------------| -----8---------------------------|
D|---------9---11---9---8---9-8-----| ---------9---11---9---8----------|
A|-7-7---7---7----7---7---7-----9---| -7-7---7---7----7---7---7-9-9-11-|
E|----------------------------------| ---------------------------------|
   * *   *   *    *   *  *            * *   *   *    *   *   *

E|----------------------------------| --------------------------------|
B|----------------------------------| --------------------------------|
G|-----8-------6-----------9-8------| -----8-------6-----------9-8----|
D|-6-6---6-9-6---6-9-6-8-6-----9----| -6-6---6-9-6---6-9-6-8-6-----9--|
A|----------------------------------| --------------------------------|
E|----------------------------------| --------------------------------|
   * *   *   *   *   *   *            * *   *   *   *   *   *

E|----------------------------------| ---------------------------------|
B|----------------------------------| ------------14-14-14-11-11-11----|
G|-----8----------------------------| -----8-------x--x--x--x--x--x----|
D|---------9---11---9---8---9-8-----| ---------9--11-11-11--8--8--8----|
A|-7-7---7---7----7---7---7-----9---| -7-7---7-------------------------|
E|----------------------------------| ---------------------------------|
   * *   *   *    *   *   *           * *   *

E|---| -----|----|----|----|----|----|----|\
B|-9-| --11-|-12-|-14-|-16-|-14-|-12-|-11-| \
G|-x-| ---x-|--x-|--x-|--x-|--x-|--x-|-x--|  \ encontre seu ritmo aqui :p
D|-6-| ---8-|--9-|-11-|-13-|-11-|--9-|-8--|  /
A|---| -----|----|----|----|----|----|----| /
E|---| -----|----|----|----|----|----|----|/

E|----------------------------------| -----------------------------------|
B|----------------------------------| -----------------------------------|
G|-------8-6-9-----8-----6---8-6-9--| -------8-6-9-----------6---8---6---|
D|-6-6-6-------6-6---6-6---6--------| -6-6-6-------6-6-6-6-6---6---6---9-|
A|----------------------------------| -----------------------------------|
E|----------------------------------| -----------------------------------|
   * * *       * *   * *   *          * * *       * * * * *   *   *   

E|------------------------------------| ---------------------------------------|
B|------------------------------------| ---------------------------------------|
G|------------------------------------| ------------------------8--------------|
D|-------9-8-11-----9-----8---9-8-11--| -------9-8-11-------------11-11-8------|
A|-7-7-7--------7-7---7-7---7---------| -7-7-7--------7-7-7-7-7-----------9-11-|
E|------------------------------------| ---------------------------------------|
   * * *        * *   * *   *           * * *        * * * * * 

E|----------------------------------| ---------------------------------|
B|----------------------------------| ---------------------------------|
G|---------------------8------------| -----------------------8---------|
D|-9-11-9---------9-11---11-9-------| -----9-11-9-------9-11---11-9----|
A|--------9-11-11-------------11-9--| -7-7--------9-7-7----------------|
E|----------------------------------| ---------------------------------|
            *  *                      * *          * *

E|---------------------------------------------------------|
B|---------------------------------------------------------|
G|-----------------------8---------------------------------|
D|-----9-11-9-------9-11---11-9-------55-5-5-5-5-5-5-5-5-5-|
A|-9-9--------9-9-9-------------11-9--66-6-6-6-6-6-6-6-6-6-|
E|---------------------------------------------------------|
   * *        * * *                   **

E|------------------------------| ---------------------------------|
B|------------------------------| ---------------------------------|
G|------------------------------| ---------------------------------|
D|-2-2-2-2-2-2-2-2-2-222-222----| -4-4-4-4-4-4-4-4-4-4-4-4-4-4-----|
A|-2-2-2-2-2-2-2-2-2-222-222----| -4-4-4-4-4-4-4-4-4-4-4-4-4-4-----|
E|-2-2-2-2-2-2-2-2-2-222-222----| -4-4-4-4-4-4-4-4-4-4-4-4-4-4-----|
                     *** ***

E|--------------------------------| ---------------------------------|
B|--------------------------------| ---------------------------------|
G|--------------------------------| ---------------------------------|
D|-2-2-2-2-2-2-2-4----------------| ---------------------------------|
A|-2-2-2-2-2-2-2-4----------------| ---------------------------------|
E|-2-2-2-2-2-2-2-4----------------| ---------------------------------|

E|----------------------------------| ---------------------------------|
B|----------------------------------| ---------------------------------|
G|----------------------------------| -----8h9p8--------9s11---6s8-6---|
D|-2--2--2--4--4--4--6--6--6--9-----| -8-9-------11-8-9------9-------8-|
A|-2--2--2--4--4--4--6--6--6--9-----| ---------------------------------|
E|-2--2--2--4--4--4--6--6--6--9-----| ---------------------------------|

E|-------------------------------| ----------------------------------------------------------|
B|-12-11----11-14-12-11----------| ----------------------------------------------------------|
G|-------11-------------13--11---| -8-9-9h11-----8-9-8--11b-11--8-9-8--------9s11---6s8-6----|
D|-------------------------------| ----------8-9----------------------9-11-9------9-------8--|
A|-------------------------------| ----------------------------------------------------------|
E|-------------------------------| ----------------------------------------------------------|

E|----------------------------------------| ---------------------------------------|
B|----------------------------------------| ---------------------11-0-9-0-7--------|
G|------------------11-----------------11-| ------------------11------------8-6-8--|
D|-2-2--------11-13-----4--------11-13----| -6-6--------11-13----------------------|
A|-2-2--11-13-----------4--11-13----------| -6-6--11-13----------------------------|
E|-2-2------------------4-----------------| -6-6-----------------------------------|

E|-------------------------------------| ---------------------------------|
B|-------------------------------------| ---------------------------------|
G|------------------11-----------------| ---------------------------------|
D|-2-2--------11-13-----4--------11----| ---------------------------------|
A|-2-2--11-13-----------4--11-13----13-| ---------------------------------|
E|-2-2------------------4--------------| ---------------------------------|

E|--------------------------------| -------------|---|---------------------------------|
B|-9---11--12--14-16--14--12--11--| -------------|---|---------------------------------|
G|-x----x---x---x--x---x---x--x---| -------------|---|---------------------------------|
D|-6----8---9--11-13--11---9--8---| -6--66666-6~-|-6-|-6-6-6-6-6-6-6-2-2-2-4----------------------|
A|--------------------------------| -6--66666-6~-|-6-|-6-6-6-6-6-6-6-2-2-2-4----------------------|
E|--------------------------------| -6--66666-6~-|-6-|-6-6-6-6-6-6-6-2-2-2-4----------------------|

E|----------------------------------| ---------------------------------|
B|----------------------------------| ---------------------------------|
G|----------------------------------| ---------------------------------|
D|-2-2-2-2-4-4-4-4-6-6-6-6-1-1-1-1--| -2-2-2-2-4-4-4-4-6-6-6-6-4-4-4-4-|
A|-2-2-2-2-4-4-4-4-6-6-6-6-1-1-1-1--| -2-2-2-2-4-4-4-4-6-6-6-6-2-2-2-2-|
E|-2-2-2-2-4-4-4-4-6-6-6-6-1-1-1-1--| -2-2-2-2-4-4-4-4-6-6-6-6---------|

E|----------------------------------| ---------------------------------|
B|----------------------------------| ---------------------------------|
G|----------------------------------| ---------------------------------|
D|-2-2-2-2-4-4-4-4-6-6-6-6-1-1-1-1--| -2-2-2-2-4-4-4-4-6-6-6-6-6-6-6-6-|
A|-2-2-2-2-4-4-4-4-6-6-6-6-1-1-1-1--| -2-2-2-2-4-4-4-4-6-6-6-6-6-6-6-6-|
E|-2-2-2-2-4-4-4-4-6-6-6-6-1-1-1-1--| -2-2-2-2-4-4-4-4-6-6-6-6-6-6-6-6-|

E|------------------------------------------| ---------------------------------------------|
B|------------------------------------------| ---------------------------------------------|
G|------------------------------------------| ------------------------------6-4------------|
D|-6-6-4h-6-4h-6-4h-6-7-6-4h-6--9-9-9-4-4-4-| -6-6-4h-6-4h-6-4h-6-7-6-4h-6------6-4--------|
A|-6-6-4h-6-4h-6-4h-6-7-6-4h-6--9-9-9-4-4-4-| -6-6-4h-6-4h-6-4h-6-7-6-4h-6----------6-4----|
E|-6-6-4h-6-4h-6-4h-6-7-6-4h-6--9-9-9-4-4-4-| -6-6-4h-6-4h-6-4h-6-7-6-4h-6-----------------|

E|--------------------------------------------------------------------------------------|
B|--------------------------------------------------------------------------------------|
G|-11-4h6-11-4h6-11-4h6-11-4h6-11-4h6-10-4h6-10-4h6-10-4h6-10-4h6-10-4h6-10-4h6-10------|
D|--------------------------------------------------------------------------------------|
A|--------------------------------------------------------------------------------------|
E|--------------------------------------------------------------------------------------|
   T      T      T      T      T      T      T      T      T      T      T      T
  
E|-----------------------------------------------------------------------------------------|
B|-----------------------------------------------------------------------------------------|
G|-4h6-9-4h6-9-4h6-9-4h6-9-4h6-9-4h6-9-4h6-9-4h6-13-4h6-13-4h6-13-4h6-14-4h6-15-16-18-20---|
D|-----------------------------------------------------------------------------------------|
A|-----------------------------------------------------------------------------------------|
E|-----------------------------------------------------------------------------------------|
       T     T     T     T     T     T     T     T      T      T      T      T  T  T   T

E|----------------------------------|
B|----------------------------------|
G|----------------------------------|
D|---------| dunno this part----------|
A|----------------------------------|
E|----------------------------------|

E|---------------------------------------| ------------------------------------------|
B|---------------------------------------| ------------------------------------------|
G|---------------------------------------| ------------------------------------------|
D|-6-6-4--4-4-4-2--2-2-2-1--1-1-1-0-2-4--| -6-6-4--4-4-4-2--2-2-2-1--1-1-1-0-1--2-4--|
A|-6-6-4--4-4-4-2--2-2-2-1--1-1-1-0-2-4--| -6-6-4--4-4-4-2--2-2-2-1--1-1-1-0-1--2-4--|
E|-6-6-4--4-4-4-2--2-2-2-1--1-1-1-0-2-4--| -6-6-4--4-4-4-2--2-2-2-1--1-1-1-0-1--2-4--|
   * * *  * * * *  * * * *  * * * * * *    * * *  * * * *  * * * *  * * * * *

D|-----7----------7----------7------------9--------| ------------------|
A|---5---5------7---7------9---9-------11---11-----| -7-7-7-7-7-7-7-7--|
G|-4-------4--6-------6--8-------8--11---------11--| -x-x-x-x-x-x-x-x--|
D|-------------------------------------------------| -4-4-4-4-4-4-4-4--|
G|-------------------------------------------------| ------------------|
E|-------------------------------------------------| ------------------|
E|-------------------C| LEAN-PART--------------------

E|---------------------------------------------------------------------------------------|
B|-9-7------------14-14-14-14-14s16-17-17-17-16-16-16--12-12-12-12-9s11-121212-12-12-12--|
G|-x-x-9-9-9-9-9---x--x--x--x--xs-x--x--x--x--x--x--x---x--x--x--x-xsx---x-x-x--x--x--x--|
D|-6-4-x-x-x-x-x--11-11-11-11-11s13-14-14-14-13-13-13---9--9--9--9-6s8---9-9-9--9--9--9--|
A|-----7-7-7-7-7-------------------------------------------------------------------------|
E|---------------------------------------------------------------------------------------|

E|---------------------------------------------------------| ------------------------------------|
B|-9-9-9-9-9-9-9-12s14--7-7-7-7-7-7-11s12--16-1414-17-1616-| -12-12-12-12-9s11-12-12-12-12-12-12-|
G|-x-x-x-x-x-x-x--xs-x--x-x-x-x-x-x--xs-x---x--x-x--x--x-x-| -x--x--x--x--xs-x--x--x--x--x--x--x-|
D|-6-6-6-6-6-6-6--9s11--4-4-4-4-4-4--8s-9--13-1111-14-1313-| -9--9--9--9--6s-8--9--9--9--9--9--9-|
A|---------------------------------------------------------| ------------------------------------|
E|---------------------------------------------------------| ------------------------------------|

E|------------------------------------------------------------------------------------------|
B|-17-17-17-16-16-16-14-14-14-12-12-12-11-11-12-12--14-14-14-16-16-16-17-17-17-19-19-19-19--|
G|--| X--X--X--X--X--X--X--X--X--X--X--X--X--X--X--X---X--X--X--x--x--x--x--x--x--x--x--x--x--|
D|-14-14-14-13-13-13-11-11-11--9--9--9--8--8--9--9--11-11-11-13-13-13-14-14-14-16-16-16-16--|
A|------------------------------------------------------------------------------------------|
E|------------------------------------------------------------------------------------------|

E|----------------------------------| ---------------------------------|
B|----------------------------------| ---------------------------------|
G|-4-3---------4-3---6-4---4-3------| -4-3---------4-3---6-4-------6-8-|
D|-----4-----------4-----4-----4-6--| -----4-----------4-----4-4-6-----|
A|-------6-4-6----------------------| -------6-4-6---------------------|
E|----------------------------------| ---------------------------------|

E|----------------------------------| ---------------------------------|
B|----------------------------------| ---------------------------------|
G|-4-3---------4-3---6-4---4-3------| -4-3---------4-3---6-4-------6-8-|
D|-----4-----------4-----4-----4-6--| -----4-----------4-----4-4-6-----|
A|-------6-4-6----------------------| -------6-4-6---------------------|
E|----------------------------------| ---------------------------------|

E|-------------------------------------------------------------------------------------------|
B|-9-9-9-9-9-9-11-11-11-11-11-11-12-12-12-12-12-12-14-14-14-14-16-16-16-17-17-17-17-17s19~---|
G|-x-x-x-x-x-x--x--x--x--x--x--x--x--x--x--x--x--x--x--x--x--x--x--x--x--x--x--x--x--xsx-~---|
D|-6-6-6-6-6-6--8--8--8--8--8--8--9--9--9--9--9--9-11-11-11-11-13-13-13-14-14| 14-14-14s16~---|
A|-------------------------------------------------------------------------------------------|
E|-------------------------------------------------------------------------------------------|


Composición de Uziel Isidoro
Colaboración y revisión:
  • Kamuri Amorim
  • Uziel Isidoro
111 vistas
    • ½ Tono
    • A
    • Bb
    • B
    • C
    • Db
    • D
    • Eb
    • E
    • F
    • F#
    • G
    • Ab
  • Agregar a la lista

    0 comentarios

    Ver todos los comentarios

    ¿Lograste tocar?

    0 Tocaron 0 Aún no

    ¡Graba un video tocando Let Me Hear - Kiseijuu: Sei No Kakuritsu y envíanoslo!

    00:00 / 00:00
    Otros videos de esta canción
    Repetir Calidad Automático
    Otros videos de esta canción
    00:00 / 00:00
    Automático
    OK