Cifra Club

Unravel - Tokyo Ghoul

Uzi - Animes

Tablatura: Principal (guitarra)
Tom: G
Introdução:

E|------------------------------------------------------------------|
B|------13---------------13-----------------------------------------|
G|--15------15--14--12-------15--14--12---12------------------------|
D|--------------------------------------------15---15--13---15--12--|
A|------------------------------------------------------------------|
E|------------------------------------------------------------------|
 
E|-------------------------------|
B|------------------15--13-/-15--|
G|-------------------------------|
D|--12--12--12--12---------------|
A|-------------------------------|
E|-------------------------------|

E|-------------------------------|
B|-------------------------------|
G|--15--14--14--14--15--14-/-15--|
D|-------------------------------|
A|-------------------------------|
E|-------------------------------|

E|--------------------------------------------|
B|------13---------------13-------------------|
G|--15------15--14--12-------15--14--12---12--|
D|--------------------------------------------|
A|--------------------------------------------|
E|--------------------------------------------|

E|------------------------|
B|------------------------|
G|------------------------|
D|--15---15--13---15--12--|
A|------------------------|
E|------------------------|

E|-------------------------------------------------------------|
B|------------------15--13-/-15--------------------------------|
G|--------------------------------15--14--14--14--15--14-/-15--|
D|--12--12--12--12---------------------------------------------|
A|-------------------------------------------------------------|
E|-------------------------------------------------------------|

E|------18------15---------------------------------------18------15---8-h-10-t-18-p-8-h-10-t-17-p-8--|
B|--15------15---------------------------------------15------15--------------------------------------|
G|-------------------7-h-10-t-19-p-7-h-10-t-17-p-5---------------------------------------------------|
D|---------------------------------------------------------------------------------------------------|
A|---------------------------------------------------------------------------------------------------|
E|---------------------------------------------------------------------------------------------------|

E|------18------15---------------------------------------18------15---8-h-10-t-18-p-8-h-10-t-17-p-8--|
B|--15------15---------------------------------------15------15--------------------------------------|
G|-------------------7-h-10-t-19-p-7-h-10-t-17-p-5---------------------------------------------------|
D|---------------------------------------------------------------------------------------------------|
A|---------------------------------------------------------------------------------------------------|
E|---------------------------------------------------------------------------------------------------|

Verso: 

E|-------------------------------------------------------------------------|
B|-----------------------15--15--13--13-------13---------------------------|
G|--14--15--15--15---15-------------------15------15--14-------------------|
D|--------------------------------------------------------15--12---12------|
A|---------------------------------------------------------------------15--|
E|-------------------------------------------------------------------------|
 
E|-------------------------------------------------------------------------------------------------------|
B|-------------------------------------------------------------------------------------------------------|
G|-------------------------------------------------------------------------------------------------------|
D|--15--15--12--12---12------12--12---15--15--12--12---12------12--12---15--15--12--12---12----------12--|
A|-----------------------15--------------------------------15--------------------------------15--15------|
E|-------------------------------------------------------------------------------------------------------|
 
E|------------------|---------------------------------------------------------------------------13----------|
B|--13--15--13--13--|--15--13--13--13-------------------------------15--13--13------------------------------|
G|------------------|------------------15--15--14--15--14-----------------------15--15--14--15------14--14--|
D|------------------|--------------------------------------15---15------------------------------------------|
A|------------------|---------------------------------------------------------------------------------------|
E|------------------|---------------------------------------------------------------------------------------|
 
E|--15--13---------------------------------------------------------------|
B|----------15-----------------------------------------------------------|
G|--------------15---14--15--12--14--14-/-15----14--15--14--12-----------|
D|--------------------------------------------------------------15---15--|
A|-----------------------------------------------------------------------|
E|-----------------------------------------------------------------------|
 
E|---------------------------------------------------------------------------------------13----------|
B|--15--13--13--13--13-------------------------------15--13--13--13--13------------------------------|
G|----------------------15--15--14--15--14-------------------------------15--15--14--15------14--14--|
D|------------------------------------------15---15--------------------------------------------------|
A|---------------------------------------------------------------------------------------------------|
E|---------------------------------------------------------------------------------------------------|
 
E|--15--13------------------------------------|
B|----------15--------------------------------|
G|--------------15---14--15--12--14--14-/-15--|
D|--------------------------------------------|
A|--------------------------------------------|
E|--------------------------------------------|
reproducciones 408
Acordes para:
    Composição: Uziel Isidoro Colaboración y revision:
    • Uziel Isidoro

    0 comentarios

    mostrar más comentarios

    ¿Conseguiste tocar?

    0 tocaron 2 aún no

    ¡Graba un vídeo tocando Unravel - Tokyo Ghoul y envianoslo!

    00:00 / 00:00
    outros vídeos desta música
    repetir qualidade Automático
    Outros vídeos desta música
    00:00 / 00:00
    Automático
    OK