Cifra Club

Lullaby Of The Crucified

Alesana

Tablatura: Principal (guitarra)
Já pensou em usar uma coleção de roupas do Cifra Club? Responda as perguntas abaixo e nos ajude nessa missão! →
tono: Am
My angel close your eyes, I'll be your lover tonight.
Pitiful lullaby, I'll be your lover tonight.
E|-----------------------------------------------||
B|-----------------------------------------------||     
G|------2-2-2-----2-2-52----2-2-2-----22---52----|| (2x)
D|-----3-3-3-3---2-2-2-----3-3-3-3---3----3------||
A|----1~--------0~--------5~--------3------------||
D|-----------------------------------------------||

My own misery is taunting me.
The air stings my lungs, I can barely see.
Wicked eyes surrounding me, the trees are watching silently.
I could try to run but baby what's the point?
E|-------------------------------------------||
B|-------------------------------------------||    
G|----------------------77777777-5555--------|| (2x)
D|----88888888-88887777-77777777-55557777----|| 
A|----88888888-88887777-55555555-33337777----||
D|----88888888-88887777--------------7777----||

I may never know
(I don't see the point.)
why I let you go.
E|------------------------------------------------||
B|------------------------------------------------||
G|----33-xx-55-xx-77-xx-5577---33-xx-55-xx--------||
D|----33-xx-55-xx-77-xx-5577---33-xx-55-xx--7~----||
A|----11-xx-33-xx-55-xx-3355---11-xx-33-xx--7~----||
D|------------------------------------------7~----||

My body is aching. I'm losing my mind! There's nothing to hold onto.
My angel close your eyes, I'll be your lover tonight.
I'm tired of trying. I'm sick of waiting!
If there's nothing that I can do.
A pitiful lullaby to sing the tortured to sleep
E|------------------------------------------||
B|------------------------------------------||   
G|----77777777---------33333333-33335555----|| (2x)
D|----77777777-3577777-33333333-33335555----|| 
A|----55555555-3577777-11111111-11113333----||
D|-------------3577777----------------------||

We could settle down and change the end.
Nothing but time, start over again.
All the little things you do that make me fall in love with you.
Have led me to this, a bittersweet abyss.
E|-------------------------------------------||
B|-------------------------------------------||    
G|----------------------77777777-5555--------|| (2x)
D|----88888888-88887777-77777777-55557777----|| 
A|----88888888-88887777-55555555-33337777----||
D|----88888888-88887777--------------7777----||

I may never know (a vexatious kiss.) why I let you go.
E|------------------------------------------------||
B|------------------------------------------------||
G|----33-xx-55-xx-77-xx-5577---33-xx-55-xx--------||
D|----33-xx-55-xx-77-xx-5577---33-xx-55-xx--7~----||
A|----11-xx-33-xx-55-xx-3355---11-xx-33-xx--7~----||
D|------------------------------------------7~----||

My body is aching. I'm losing my mind!
There's nothing to hold onto.
My angel close your eyes, I'll be your lover tonight.
I'm tired of trying. I'm sick of waiting!
If there's nothing that I can do.
A pitiful lullaby to sing the tortured to sleep
E|------------------------------------------||
B|------------------------------------------||    
G|----77777777---------33333333-33335555----|| (2x)
D|----77777777-3577777-33333333-33335555----|| 
A|----55555555-3577777-11111111-11113333----||
D|-------------3577777----------------------||

I will follow you into the night my darling eyes.
I would do anything to be lying with you as I watch you
E|-----------------------------------------------||
B|-----------------------------------------------||    
G|----7~----~-----5~-----------7~----------5~----|| (2x)
D|----7~----3~----5~----2-3----7~----3~----5~----|| 
A|----5~----3~----3~----2-3----5~----3~----3~----||
D|----------3~----------2-3----------3~----------||

Dream!
I have been reborn! I have broken free! I'm free! I'm free!
You can't deny me, do not defy me! I'm drunk on lust and sovereignty!
Abandon all hope for beyond time I can stand!

E|-------------------------------------------||
B|-------------------------------------------||
G|-------------------------------77553322----||
D|----88888888-88888888-88888888-77553322----|| 
A|----88888888-88888888-88888888-55331100----||  
D|----88888888-88888888-88888888-------------|| 
                                                (5x)
E|-------------------------------------------||  
B|-------------------------------------------||  
G|-------------------------------------77----||  
D|----00000000-00000000-00000000-55778877----||
A|----00000000-00000000-00000000-55778855----||
D|----00000000-00000000-00000000-557788------||

I have been reborn! Darling, tonight we say goodbye!
Sing a touching lullaby and we'll watch the angels cry.
E|------------------------------------------||
B|------------------------------------------||
G|-------------------------------7-5-3-2----||
D|----8~----------------88~------7-5-3-2----||
A|----8~----------------88~------5-3-1-0----||
D|----8~----------------88~-----------------||

E|------------------------------------------||
B|------------------------------------------||
G|-------------------------------------7----||
D|----0~----------------00~------5-7-8-7----||
A|----0~----------------00~------5-7-8-5----||
D|----0~----------------00~------5-7-8------||

E|----------------------------------------------||
B|----------------------------------------------||
G|-------------------------------7-5-3-2--------||
D|----8~----------------88~------7-5-3-2--0~----||
A|----8~----------------88~------5-3-1-0--0~----||
D|----8~----------------88~---------------0~----||
Colaboración y revision:
  • Despair
354 reproducciones
    • ½ Tono
    • Am
    • Bbm
    • Bm
    • Cm
    • C#m
    • Dm
    • Ebm
    • Em
    • Fm
    • F#m
    • Gm
    • G#m
  • Adicionar à lista

    0 comentarios

    Ver todos os comentários

    ¿Conseguiste tocar?

    0 Tocaram 0 Ainda não

    Grave um vídeo tocando Lullaby Of The Crucified e nos envie!

    00:00 / 00:00
    outros vídeos desta música
    repetir qualidade Automático
    Outros vídeos desta música
    00:00 / 00:00
    Automático
    OK