Cifra Club

Enfermedad de tí

Andrés Cepeda

Cifrado: Versão 2 (guitarra y guitarra eléctrica)
tono: Bm
 Introducción

E|---------------------------------------------------|
B|-0-----0-----1-----3----1-----3--3-----------------|
G|-0-----0-----0-----0----0-----0--2-----------------|
D|----0-----0-----0----------2-----0-----------------|
A|------------------------3-----3--2-----------------|
E|-3-----3-----3-----3-------------------------------|


Verso

Yo tengo una enfermedad de ti  me hace daño todo si no estas

E|-----------------------------------------------------|
B|--0-----0-----1-----3---------0-----0-----1-----3----|
G|--0-----0-----0-----0---------0-----0-----0-----0----|
D|-----0-----0-----0---------------0-----0-----0-------|
A|-----------------------------------------------------|
E|--3-----3-----3-----3---------3-----3-----3-----3----|

Necesito compañía de tu amor

E|-----------0-----------------------------------------|
B|------3------3----------2-0---------5----------------|
G|----2---2------2--------2-2---------4----------------|
D|---------------------------------2-------------------|
A|--2---------------------0-0--------------------------|
E|------------------1-0---------4----------------------|

Yo tengo un fanatismo ciego corazón una necesidad una
dependencia loca

E|-----------------------------------------------------|
B|--0-----0-----1-----3---0-----0-----1-----3----------|
G|--0-----0-----0-----0---0-----0-----0-----0----------|
D|-----2-----2-----2---------2-----2-----2-------------|
A|--0-----0-----0-----0---0-----0-----0-----0----------|
E|-----------------------------------------------------|

De tus cosas y tú forma de mirar

E|-----------0---------------0-------------------------|
B|-------------3---0-------3-3-------------------------|
G|------0--------0-------2-----------------------------|
D|----4---4------------0-------------------------------|
A|--2--------------------------------------------------|
E|-----------------------------------------------------|


Yo tengo una enfermedad de ti mi voluntad no puede resistir

E|----------------------------------------------------|
B|--0-----0-----1-----3---------0-----0-----1-----3---|
G|--0-----0-----0-----0---------0-----0-----0-----0---|
D|-----0-----0-----0---------------0-----0-----0------|
A|----------------------------------------------------|
E|--3-----3-----3-----3---------3-----3-----3-----3---|


No decido si me quedo o si me voy

E|-----------0-----------------------------------------|
B|------3------3----------2-0---------5----------------|
G|----2---2------2--------2-2---------4----------------|
D|---------------------------------2-------------------|
A|--2---------------------0-0--------------------------|
E|------------------1-0---------4----------------------|


Sé que al final tú no eras para mí pero es que el alma no sabe elegir

E|-----------------------------------------------------|
B|--0-----0-----1-----3---0-----0-----1-----3----------|
G|--0-----0-----0-----0---0-----0-----0-----0----------|
D|-----2-----2-----2---------2-----2-----2-------------|
A|--0-----0-----0-----0---0-----0-----0-----0----------|
E|-----------------------------------------------------|

Perdí la brújula no se ni a donde voy

E|-----------0---------| 1----0-------------------------
B|-------------3---0---| 1-2--2----1----3---------------
G|------0--------0-----| 2------3--2----4---------------
D|----4---4------------| 0----0------3----0-------------
A|--2--------------------------------------------------|
E|--------------------------------1----4---------------|

Este amor es un juego pero yo me lo he tomado muy enserio

E|----------3--------------2---3---5----|-^-|-^-5-------|
B|------3---3--3---3---3---3---3---3----|-|-|-|-3-------|
G|----0---0------0-----2-2---2---2---2--|-|-|-|-2-------|
D|---------------------0---0---0---0----|-|-|-|-0-------|
A|--3---------------------------------------------------|
E|------------------------------------------------------|

Nota: rasguean la figura de la siguiente manera:
1 abajo, 1 arriba, 1 abajo y 1 arriba

y ya no hay remedio

E|--5----------0----------------------------------------|
B|----3--------0----3--8--6--5----0-----0-----1-----3---|
G|--------2------2--2--7--7--7----0-----0-----0-----0---|
D|--0---0---2--3----3--8--8----------2-----2-----2------|
A|---------------------7--0-------0-----0-----0-----0---|
E|---------------------------6--------------------------|

Porque yo me he vuelto ciego y voy prendido de tu pelo a
donde vayas corazón, a donde vayas

E|----------3-------------------------------3-2---------|
B|------3---3--3---3------3---------5-------3-3---------|
G|----0---0------0------0---0-------4-----2-------------|
D|--------------------------------2-----0---------------|
A|--2-----------------3---------4-----------------------|
E|------------------------------------------------------|

Introducción

E|---------------------------------------------------|
B|-0-----0-----1-----3----1-----3--3-----------------|
G|-0-----0-----0-----0----0-----0--2-----------------|
D|----0-----0-----0----------2-----0-----------------|
A|------------------------3-----3--2-----------------|
E|-3-----3-----3-----3-------------------------------|


Yo sé que nada voy a conseguir en fin que solo se trata
de mí

E|-----------------------------------------------------|
B|--0-----0-----1-----3---------0-----0-----1-----3----|
G|--0-----0-----0-----0---------0-----0-----0-----0----|
D|-----0-----0-----0---------------0-----0-----0-------|
A|-----------------------------------------------------|
E|--3-----3-----3-----3---------3-----3-----3-----3----|

De tu lado sé que nada pasara

E|-----------0-----------------------------------------|
B|------3------3----------2-0---------5----------------|
G|----2---2------2--------2-2---------4----------------|
D|---------------------------------2-------------------|
A|--2---------------------0-0--------------------------|
E|------------------1-0---------4----------------------|



Tu siempre vuelas yo me quedo aquí las cosas lindas se demoran

E|-----------------------------------------------------|
B|--0-----0-----1-----3---0-----0-----1-----3----------|
G|--0-----0-----0-----0---0-----0-----0-----0----------|
D|-----2-----2-----2---------2-----2-----2-------------|
A|--0-----0-----0-----0---0-----0-----0-----0----------|
E|-----------------------------------------------------|

Yo lo sé por eso te voy a esperar

E|-----------0---------| 1----0-------------------------
B|-------------3---0---| 1-2--2----1----3---------------
G|------0--------0-----| 2------3--2----4---------------
D|----4---4------------| 0----0------3----0-------------
A|--2--------------------------------------------------|
E|--------------------------------1----4---------------|

Este amor es un juego pero yo me lo he tomado muy enserio

E|----------3--------------2---3---5----|-^-|-^-5-------|
B|------3---3--3---3---3---3---3---3----|-|-|-|-3-------|
G|----0---0------0-----2-2---2---2---2--|-|-|-|-2-------|
D|---------------------0---0---0---0----|-|-|-|-0-------|
A|--3---------------------------------------------------|
E|------------------------------------------------------|

Y ya no hay remedio

E|--5----------0----------------------------------------|
B|----3--------0----3--8--6--5----0-----0-----1-----3---|
G|--------2------2--2--7--7--7----0-----0-----0-----0---|
D|--0---0---2--3----3--8--8----------2-----2-----2------|
A|---------------------7--0-------0-----0-----0-----0---|
E|---------------------------6--------------------------|

Porque yo me he vuelto ciego y voy prendido de tu pelo
a donde vayas corazón

E|----------3-------------------------------3-2---------|
B|------3---3--3---3------3---------5-------3-3---------|
G|----0---0------0------0---0-------4-----2-------------|
D|--------------------------------2-----0---------------|
A|--2-----------------3---------4-----------------------|
E|------------------------------------------------------|


Este amor es un juego pero yo me lo he tomado muy enserio

E|----------3--------------2---3---5----|-^-|-^-5-------|
B|------3---3--3---3---3---3---3---3----|-|-|-|-3-------|
G|----0---0------0-----2-2---2---2---2--|-|-|-|-2-------|
D|---------------------0---0---0---0----|-|-|-|-0-------|
A|--3---------------------------------------------------|
E|------------------------------------------------------|

y ya no hay remedio

E|--5----------0----------------------------------------|
B|----3--------0----3--8--6--5----0-----0-----1-----3---|
G|--------2------2--2--7--7--7----0-----0-----0-----0---|
D|--0---0---2--3----3--8--8----------2-----2-----2------|
A|---------------------7--0-------0-----0-----0-----0---|
E|---------------------------6--------------------------|

Porque yo me he vuelto ciego y voy prendido de tu pelo
a donde vayas corazón, a donde vayas

E|----------3-------------------------------3-2---------|
B|------3---3--3---3------3---------5-------3-3---------|
G|----0---0------0------0---0-------4-----2-------------|
D|--------------------------------2-----0---------------|
A|--2-----------------3---------4-----------------------|
E|------------------------------------------------------|

Outro

E|---------------------------------------------------|
B|-0-----0-----1-----3----1-----3--3-----------------|
G|-0-----0-----0-----0----0-----0--2-----------------|
D|----0-----0-----0----------2-----0-----------------|
A|------------------------3-----3--2-----------------|
E|-3-----3-----3-----3-------------------------------|





Hola amigos soy Carlos Osorio es gratificante
realizar mi segundo aporte de tablatura a la cuerda
 y que mejor que hacerlo con esta magnífica canción
de Andrés Cepeda. Saludos desde Colombia espero les guste :D
00:00 / 00:00
Otros videos de esta canción
Repetir
Otros videos de esta canción
Composición de Amaury Gutierrez
    • ½ Tono
    • Am
    • Bbm
    • Bm
    • Cm
    • C#m
    • Dm
    • Ebm
    • Em
    • Fm
    • F#m
    • Gm
    • G#m
  • Agregar a la lista

    0 comentarios

    Ver todos los comentarios

    ¿Lograste tocar?

    0 Tocaron 0 Aún no

    ¡Graba un video tocando Enfermedad de tí y envíanoslo!

    00:00 / 00:00
    OK