Cifra Club

O Que Ela Gosta É de Barriga

Charlie Brown Jr.

Cifrado: Principal (guitarra y guitarra eléctrica)
tono: Bb
Afine a guitarra meio tom abaixo (Eb)

Introdução:(Riff 1)
-|-------------------------------------------------------|-
-|-------------------------------------------------------|-
-|-------------------------------------------------------|-
-|--(44)4-------------------------(77)7------------------|-
-|--(22)2-----(44)4-----(55)5-----(55)5------------------|-
-|------------(22)2-----(33)3----------------------------|-
  4x   Entre Parentes = Abafado

Verso (Riff 2)
-|--7--7--7-----------7--7--7----------------------------|-
-|--7--7--7-9-7-------7--7--7-9--------------------------|-
-|----------9-7---------------9--------------------------|-
-|-------------------------------------------------------|-
-|-------------------------------------------------------|-
-|-------------------------------------------------------|-
    4x

   O que me importa é saber que ela tem
   Uma segunda intenção eu vejo no seu olhar
   Eu não me importo de levar suas toalhas
   Se você ficar molhada eu to aqui pra enxugar

Refrão (Riff1)

-|-------------------------------------------------------|-
-|-------------------------------------------------------|-
-|-------------------------------------------------------|-
-|--(44)4-------------------------(77)7------------------|-
-|--(22)2-----(44)4-----(55)5-----(55)5------------------|-
-|------------(22)2-----(33)3----------------------------|-
   4x

   Do que ela gosta
   Eu tenho até demais
   Do que ela gosta
   Eu tenho até demais
   Do que ela gosta
   Eu tenho até demais
   Do que ela gosta
   Eu tenho até demais

Verso (Riff 2)
-|--7--7--7-----------7--7--7----------------------------|-
-|--7--7--7-9-7-------7--7--7-9--------------------------|-
-|----------9-7---------------9--------------------------|-
-|-------------------------------------------------------|-
-|-------------------------------------------------------|-
-|-------------------------------------------------------|-
  4x

Ouvindo um som, tomando sol e olhando o mar
Com água na boca esperando ela passar
Eu não me importo de levar suas toalhas
Se você ficar molhada eu to aqui pra enxugar

Refrão (Riff 1)

   Do que ela gosta
   Eu tenho até demais
   Do que ela gosta
   Eu tenho até demais
   Do que ela gosta
   Eu tenho até demais
   Do que ela gosta
   Eu tenho até demais

Riff 3

-|-------------------------------------------------------|-
-|-------------------------------------------------------|-
-|-------------------------------------------------------|-
-|---44----44----44----44--------------------------------|-
-|---22----22----22----22--------------------------------|-
-|-------------------------------------------------------|-
   2 x

Riff 4
-|-------------------------------------------------------|-
-|-------------------------------------------------------|-
-|---16----16----16----16--------------------------------|-
-|-------------------------------------------------------|-
-|---14----14----14----14--------------------------------|-
-|-------------------------------------------------------|-
   1 x junto com o Riff 3

Riff 3

Ouvindo um sol, olhando o mar
Com água na boca esperando ela passar

Riff 3 e Riff 4

Eu to feliz porque ela veio
Se ela veio ela me trouxe
Eu também tenho o que ela quer
Tá ligado é um bom negócio

Riff 5
-|-------------------------------------------------------|-
-|-------------------------------------------------------|-
-|-------------------------------------------------------|-
-|--444---------------------777--------------------------|-
-|--222-----444-----555-----555--------------------------|-
-|----------222-----333----------------------------------|-
   4x

Riff 5

Me tira do sufoco desse mundo que eu não sou
E muito de você pra mim é pouco
Me tira do sufoco desse mundo que eu não sou
E muito de você pra mim é pouco


Refrão (Riff 1)

   Do que ela gosta
   Eu tenho até demais
   Do que ela gosta
   Eu tenho até demais
   Do que ela gosta
   Eu tenho até demais
   Do que ela gosta
   Eu tenho até demais

Depois vem um solo final que ainda não tive tempo de tirar, mas o solo não é difícil,
se alguém tirar antes coloque ai..é isso aí. Abraços
00:00 / 00:00
Otros videos de esta canción
Repetir
Otros videos de esta canción
Composición de Chorão
Colaboración y revisión:
  • BRUNO POLO
  • Osmar Neto
88 vistas
    • ½ Tono
    • A
    • Bb
    • B
    • C
    • Db
    • D
    • Eb
    • E
    • F
    • F#
    • G
    • Ab
  • Agregar a la lista

    0 comentarios

    Ver todos los comentarios

    ¿Lograste tocar?

    2 Tocaron 0 Aún no

    ¡Graba un video tocando O Que Ela Gosta É de Barriga y envíanoslo!

    00:00 / 00:00
    OK