Cifra Club

Nobody Knows You When You're Down And Out

Eric Clapton

Cifrado: Principal (guitarra y guitarra eléctrica)
Já pensou em usar uma coleção de roupas do Cifra Club? Responda as perguntas abaixo e nos ajude nessa missão! →
tono: C
[Intro] C   E7  A7 
        Dm7  D7  G7
 
        C     E7           A7       Dm7   
E|------0--------0-------3-3-3-3--1-1-1-1---|
B|----1-1----0-0---3-2-2-2-2-2-2--1-1-1-1---|
G|----0-0----0-1-----0-0-0-0-0-0--2-2-2-2---|
D|----2-2----0-0-----2-2-2-2---2--0---0-0---|
A|--3----------2-----0----------------------|
E|------------------------------------------|

     A7       Dm7       F7M
E|-------3--1-1-1-1----------------0-0-0-0--|
B|-----2----1-1-1-1----------------1-1-1-1--|
G|---0------2-2-2-2----------------2-2-2-2--|
D|----------0---0----------0h1h2h3-3---3-4--|
A|-0----------------------------------------|
E|------------------------------------------|

         A7            D7          G7        
E|-----------0-0---2-2-2-2-2-2----1-1-1--1--|
B|-------2-2-2-2---1-1-1-1-1-1----0-0-0--0--|
G|-------0-0-0-0---2-2-2-2-2-2----0-0-0--0--|
D|-------2-2-2-2---0---0-0---0--------------|
A|-3-2-1-0-------------------------------2--|
E|--------------------------------3---------|

E|-1-1--------------------------------------|
B|-0-0--------------------------------------|
G|-0-0------------------------------~-------|
D|------------------------------------------|
A|------------------------------------------|
E|------------------------------------------|

Parte 1

        C     E7          A7       Dm7   
E|------0----------------3-3-3-3--1-1-1-1---|
B|----1-1----0-0-----2-2-2-2-2-2--1-1-1-1---|
G|----0-0----0-1-----0-0-0-0-0-0--2-2-2-2---|
D|----2-2----0-0-----2-2-2-2---2--0---0-0---|
A|--3----------2-----0----------------------|
E|------------------------------------------|

     A7       Dm7       F7M
E|-3-3-3----1-1-1-1----------------0-0-0-0--|
B|-2-2-2----1-1-1-1----------------1-1-1-1--|
G|-0-0-0----2-2-2-2----------------2-2-2-2--|
D|----------0---0----------0h1h2h3-3---3-4--|
A|-0----------------------------------------|
E|------------------------------------------|

         A7            D7          G7        
E|-----------0-0---2-2-2-2-2-2----1-1-1--1--|
B|-------2-2-2-2---1-1-1-1-1-1----0-0-0--0--|
G|-------0-0-0-0---2-2-2-2-2-2----0-0-0--0--|
D|-------2-2-2-2---0---0-0---0--------------|
A|-3-2-1-0-------------------------------2--|
E|--------------------------------3---------|

E|-1-1--------------------------------------|
B|-0-0--------------------------------------|
G|-0-0------------------------------~-------|
D|------------------------------------------|
A|------------------------------------------|
E|------------------------------------------|

 C       E7                    A7
Once I lived the life of a millionaire
  Dm           A7          Dm   Dm
Spent all my money, I just did not care
   F         F#m7M                      A7
Took all my friends out for a good time
   D7                      G7
Bought bootleg liquor, champagne and wine

 C       E7              A7
Then I began to fall so low
  Dm           A7          Dm   Dm
Lost all my good friends, I did not have nowhere to go
   F         F#m7M            A7
I get my hands on a dollar again
 D7                      G7
I'm gonna hang on to it till that eagle grins

 C     E7           A7
Cause no, no, nobody knows you
  Dm        A7        Dm 
When you're down and out
F         F#m7M  
In your pocket, not one penny
   D7                      G7
And as for friends, you don't have any 

C       E7                    A7
When you finally get back up on your feet again
  Dm           A7          Dm        Dm
Everybody wants to be your old long-lost friend
   F         F#m7M                A7
Said it's mighty strange, without a doubt
   D7                       G7
Nobody knows you when you're down and out

C       E7                    A7
When you finally get back up on your feet again
  Dm           A7          Dm        Dm
Everybody wants to be your old long-lost friend
   F         F#m7M              
Said it's mighty strange
Composición de Jimmie Cox
4.574 vistas
    • ½ Tono
    • A
    • Bb
    • B
    • C
    • Db
    • D
    • Eb
    • E
    • F
    • F#
    • G
    • Ab
  • Agregar a la lista

    0 comentarios

    Ver todos los comentarios

    ¿Lograste tocar?

    7 Tocaron 2 Aún no

    ¡Graba un video tocando Nobody Knows You When You're Down And Out y envíanoslo!

    00:00 / 00:00
    Outros vídeos desta música
    Repetir Calidad Automático
    Outros vídeos desta música
    00:00 / 00:00
    Automático
    Capítulos
    • Tocando a Música
    • Apresentação / Equipamentos
    • Acordes da Música
    • Tocando Introdução - Refrão
    • Ritmo da Música
    • Acordes do Final
    • Tocando Final
    • Ritmo Final
    • Encerramento
    OK