Cifra Club

Its Ok But Just This Once

Gym Class Heroes

Tab de bajo: Principal
Tabbed By : SdTuEoVlEcN
e-mail: R*

Tuning:Standard

verse 

G|------------------------------------------------------------------------|
D|------------------------------------------------------------------------|
A|-22----22----22--------22----22----22----22-----22---22-----44/6--------|
E|---------------00-22-44--------------------------------00-22------------|

chorus

G|---------------------------------------------------------------------|
D|---------------------------------------------------------------------|
A|------4-----------4-----------4--------------------------------------|
E|-00-22-4-2---00-22-4-2---00-22-4-2------0-2-4-----4-2-0--------------|

| /  slide up
| \  slide down
| h  hammer-on
| p  pull-off
| ~  vibrato
| +  harmonic
| x  Mute note
===============================================================================
Composición de Dave Katz / Gym Class Heroes / Sam Hollander
7 vistas

0 comentarios

Ver todos los comentarios

¿Lograste tocar?

0 Tocaron 0 Aún no

¡Graba un video tocando Its Ok But Just This Once y envíanoslo!

00:00 / 00:00
Outros vídeos desta música
Repetir Calidad Automático
Outros vídeos desta música
00:00 / 00:00
Automático
OK