Cifra Club

Nunca Quise

Intoxicados

Cifrado: Versão 2 (guitarra y guitarra eléctrica)
tono: A
INTRO (primera guitarra): D E A X3 F#m Bm E


Segunda guitarra:
                        De la tercera vez engancha asi...
E|--------------------| |-----------------------------|
B|--------------------| |-----------------------------|
G|--9-/11--13-/14--11-| x3|--9-7-6----------------------|
D|--------------------| |-----------9-11-12--9--------|
A|--7-/9---11-/12--9--| |--7-5-4----------------------|
E|--------------------| |-----------7-9---10-7--------|


Durante el tema, la segunda guitarra hace principalmente esto...

E|-------4------------------------|
B|-------5------------------------|
G|-------6-----9-/11-13/14--11----|
D|-------6------------------------|
A|-------------7-/9--11/12--9-----|
E|--------------------------------|


     D              Bm
Nunca quise tanto a nadie como a vos
    C#m                  F#m
por eso es que empiezo a dudar...
      Bm                     E
Si seremos hermanos que nos separaron
     A                         A
y nosotros sin saberlo nos volvimos a juntar.


    D                  Bm
Tu sangre es roja, la mía tambien
     C#m                   F#m
pero no me equivoco, algo tendremos que ver
      Bm                     E
Somos indios latinos con guitarra eléctrica
   A                A
y comunicados a través de internet.


D        E               A
  Para odiar hay que querer...
D           E              A
  Para destruir hay que hacer...
        D     E          A        F#m
Y estoy orgulloso de quererte romper
      Bm               E
la cabeza contra la pared... Si!

       D                     Bm
Y por todas esas cosa que tenemos en común
       C#m                    F#m
hace tiempo ya marchaste de acá
       Bm                    E
Te cansaste de mi, yo me cansé de vos
       A                    A
pero cuando nos miramos, sabemos que no es verdad.


       D                 Bm
Porque tanto te quise, y tanto te quiero
        C#m                 F#m
Siempre una marca tuya llevará mi corazón
       Bm              E
Disculpá si te parece raro, pero comparto
     A                   A
la opinión que esuché en una canción, "Let It Be"...


D           Bm
Si la amas, déjala ser...
      C#m               F#m
Si la quieres, déjala volar...
        Bm                   E
Nunca fui tu patrón, no quisiera cambiarte
     A                         A
y no quiero que pierdas tu personalidad


D        E               A
  Para odiar hay que querer...
D           E              A
  Para destruir hay que hacer...
        D     E          A        F#m
Y estoy orgulloso de quererte romper
      Bm               E
la cabeza contra la pared... Si!


G  O:


E|----------------------------------------------------------------|
B|----------------------------------------------------------------|
G|--14-13-11-9----------------------------------9-/11-13/14--11---|
D|--------------------------7----10--11-/9--7---------------------|
A|--12-11-9--7----------7-9---------------------7-/9---11/12-9----|
E|----------------5-8/9----------12--9--/7--5---------------------|

E|------------------------------------------|
B|------------------------------------------|
G|------------------------------------------|
D|--11-/9--7------9-11-12-14-16-18----------|
A|------------------------------------------|
E|--9--/7--5------7--9-10-12-14-16----------|

E|-----------------------------------------------------------------|
B|-----------------------------------------------------------------|
G|--14-13-11-9------------------------------------9-/11-13/14--11--|
D|-------------------------7----10--11-/9--7-----------------------|
A|--12-11-9--7---------7-9------------------------7-/9--11/12--9---|
E|----------------5-8/9---------12--9--/7--5-----------------------|

E|------------------------------------------|
B|------------------------------------------|
G|------------------------------------------|
D|--11-/9--7-----9-11-12-14-16-18-----------|
A|------------------------------------------|
E|--9--/7--5-----7--9-10-12-14-16-----------|


D        E               A
  Para odiar hay que querer...
D           E              A
  Para destruir hay que hacer...
        D     E          A        F#m
Y estoy orgulloso de quererte romper
      Bm               E
la cabeza contra la pared...


D         E              A
  Para dejar, hay que beber...
D         E            A
  Para morir, primero hay que nacer...
       D           E          A          F#m
Siento ganas nuevamente de tirarme a tus pies
      Bm               E
y llevarte a mi morada otra vez


D            E          A
  Si lo sembrás lo recogés...
D           E              A
  Y si esperás vas a entender...
            D     E         A         F#m
Cuando las cosas salen como no las espero
    Bm                   E
La vida me hace más guerrero...  Uhh...


FINAL:


E|-----------------------------------------------------------------|
B|-----------------------------------------------------------------|
G|--14-13-11-9----------------------------------9-/11-13/14-11-----|
D|--------------------------7-----12-11/9--7-----------------------|
A|--12-11-9--7----------7-9---------------------7-/9--10/11-9------|
E|-----------------5-8/9----------10-9-/7--5-----------------------|

E|-----------------------------------------------|
B|-----------------------------------------------|
G|--9-7-6----------------------------------------|
D|------------11-/9--7------9-11-12-14-16-18-----|
A|--7-5-4----------------------------------------|
E|-------------9-/7--5------7-9--10-12-14-16-----|

E|--------------------------------------------------------------|
B|--------------------------------------------------------------|
G|--14-13-11-9-------------------------------9-/11-13/14--11----|
D|---------------11aba| j-7-----12-11/9--7------------------------
A|--12-11-9--7-------------------------------7-/9--11/12---9----|
E|----------------------------10--9/7--5------------------------|

E|----------------------------------------------------|
B|----------------------------------------------------|
G|--9-7-6---------------------------------------------|
D|-------------11-/9--7-----9-11-12-14-16-18-19-------|
A|--7-5-4---------------------------------------------|
E|--------------9-/7--5-----7--9-10-12-14-16-17-------|
00:00 / 00:00
Otros videos de esta canción
Repetir
Otros videos de esta canción
Composición de Cristian Alvarez
112 exhibiciones
    • ½ Tono
    • A
    • Bb
    • B
    • C
    • Db
    • D
    • Eb
    • E
    • F
    • F#
    • G
    • Ab
  • Agregar a la lista
    00:00 / 00:00
    OK