Cifra Club

My Party Intro

Kings Of Leon

Tablatura: Principal (guitarra)
Tom: E
Album: Because of the Times
Comments: Sorry if this thing is crap it's my first go at a tab.

    1    +   2     +    3+       4             1+       +      3+       4
E-------------------------------------|----------------------------------------|-----------------------------------|-------------------------------------|
B-------------------------------------|----------------------------------------|-----------------------------------|-------------------------------------|
G-------------------------------------|----------------------------------------|-----------------------------------|-------------------------------------|
D-------------------------------------|----------------------------------------|-----------------------------------|-------------------------------------|
A----4-------4---------44-------------|---------44------4------44--------------|------4-------4--------44----------|----44--------4-------44-------------|
E--------------------------------0----|----------------------------------0-----|--------------------------------0--|-----------(0)-----------------0-----|


    1    +   2     +    3+       4             1+       +      3+       4
E-------------------------------------|----------------------------------------|-----------------------------------|-------------------------------------|
B-------------------------------------|----------------------------------------|-----------------------------------|-------------------------------------|
G-------------------------------------|----------------------------------------|-----------------------------------|-------------------------------------|
D-------------------------------------|----------------------------------------|-----------------------------------|-------------------------------------|
A----4-------4---------44-------------|---------4-------4-------4--------------|------4-------4--------44----------|----4---------4-------44-------------|
E--------------------------------0----|----------------------------------0-----|--------------------------------0--|-------------------------------0-----|


    1    +   2     +    3+       4             1+       +      3+       4
E-------------------------------------|----------------------------------------|-----------------------------------|-------------------------------------|
B-------------------------------------|----------------------------------------|-----------------------------------|-------------------------------------|
G-------------------------------------|----------------------------------------|-----------------------------------|-------------------------------------|
D-------------------------------------|----------------------------------------|-----------------------------------|-------------------------------------|
A----4-------4---------44-------------|--------4------4--------44--------------|------4-------4--------44----------|----4---------4-------44-------------|
E--------------------------------0----|----------------------------------0-----|--------------------------------0--|-------------------------------0-----|

    1    +   2     +    3+       4             1+       +      3+       4
E-------------------------------------|----------------------------------------|-----------------------------------|-------------------------------------|
B-------------------------------------|----------------------------------------|-----------------------------------|-------------------------------------|
G-------------------------------------|----------------------------------------|-----------------------------------|-------------------------------------|
D-------------------------------------|----------------------------------------|-----------------------------------|-------------------------------------|
A----4-------4---------44-------------|--------4------4--------44--------------|------4-------4--------44----------|----4---------4-------44-------------|
E--------------------------------0----|----------------------------------0-----|--------------------------------0--|-------------------------------0-----|
reproducciones 32
Acordes para:

    0 comentarios

    mostrar más comentarios

    ¿Conseguiste tocar?

    0 tocaron 0 aún no

    ¡Graba un vídeo tocando My Party Intro y envianoslo!

    00:00 / 00:00
    outros vídeos desta música
    repetir qualidade Automático
    Outros vídeos desta música
    00:00 / 00:00
    Automático
    OK