Cifra Club

Slow Night So Long Intro

Kings Of Leon

Tablatura: Principal (guitarra)
Tom: D
E|-----------------------------------------| 
B|-----------------------------------------|
G|--9------------------9-------------11--9-|
D|--9------------------9-------------11--9-|
A|--7-0-0--0-0--0-0--0-7-0-0--0-0--0-9---7-| 
E|-----------------------------------------|


E|----------------------------------------|
B|----------------------------------------|
G|--7------------------7------------------|
D|--7------------------7------------------|
A|--5-0-0--0-0--0-0--0-5-0-0--0-0--0-0--0-|
E|----------------------------------------|

Another guitar comes in after a while and plays this along with the first line:

E|------------------------------------|
B|------------------------------------|
G|--9-11-14-16-14------9-11-14-16-14--|
D|------------------------------------|
A|------------------------------------|
E|------------------------------------|

E|-------------------------------------|
B|-----------17-15---------------17-15-|
G|--11-14-16------------11-14-16-------|
D|-------------------------------------|
A|-------------------------------------|
E|-------------------------------------|

Then both guitars play :

E|--------------------------------------------| x2
B|--------------------------------------------|
G|--2------7-7-7-x-x-x-x-7----7-7-7-x-x-x-x-7-|
D|--2-x16--7-7-7-x-x-x-x-7----7-7-7-x-x-x-x-7-|
A|--0------5-5-5-x-x-x-x-5----5-5-5-x-x-x-x-5-|
E|--------------------------------------------|

reproducciones 56
Acordes para:

    0 comentarios

    mostrar más comentarios

    ¿Conseguiste tocar?

    0 tocaron 0 aún no

    ¡Graba un vídeo tocando Slow Night So Long Intro y envianoslo!

    00:00 / 00:00
    outros vídeos desta música
    repetir qualidade Automático
    Outros vídeos desta música
    00:00 / 00:00
    Automático
    OK