Cifra Club

True Love Way

Kings Of Leon

Tablatura: Principal (guitarra)
Tom: D
I looked everywhere for a decent tab and there weren't any suberb ones anywhere. I 
to have a bash at learning it and here's the result... if it's wrong don't blame me, I wasn't 
trying.



Standard Tuning
Guitar 1 - Main Riff / Intro

e-----------------------------------------------------------|
B-----------------------------------------------------------|
G----------7-7------------7-7------------4-4------------4-4-|
D--7-7-7-7-7-7----7-7-7-7-7-7----4-4-4-4-4-4----4-4-4-4-4-4-|
A--5-5-5-5-5-5----5-5-5-5-5-5----2-2-2-2-2-2----2-2-2-2-2-2-|
E-----------------------------------------------------------|

e-----------------------------------------------------------|
B-----------------------------------------------------------|
G----------------------------------------4-4------------4-4-|
D----------5-5------------5-5----4-4-4-4-4-4----4-4-4-4-4-4-|
A--5-5-5-5-5-5----5-5-5-5-5-5----2-2-2-2-2-2----2-2-2-2-2-2-|
E--3-3-3-3-3-3----3-3-3-3-3-3-------------------------------|

Guitar 2 - Harmonics / Intro

e--------------------|
B--------------------|
G----7*---------7*---|
D--------------------|    I think??? Then hold the above chords
A------5*-5*------5*-|    on the first beat of the bar.
E--------------------|

Guitar 1 - Verse

e----------|
B----------|
G---7~-----|
D---7~-----|
A---5~-----|
E----------|

Guitar 2 - Verse - Come in After 2 Bars. (Listen to the Strumming pattern.)

e----------------------------------------------------|
B----------------------------------------------------|
G---7---7---7-7/4--4--4-4---4-4---4------------------|
D---7---7---7-7/4--4--4-4---4-4---4---9-9/5--5--5-5--|
A---5---5---5-5/2--2--2-2---2-2---2---9-9/5--5--5-5--|
E-------------------------------------7-7/3--3--3-3--|

Chorus - Both guitars  (I think)

e--------------------------|
B--------------------------|
G--------------------------|
D---9~----5~----7~----12~--|
A---9~----5~----7~----12~--|
E---7~----3~----5~----10~--|


Guitar 1 - Solo

e|-12----12-12----12-12----12-14----14---14----|
B|-15b17----15b17----15b17------15~---15~--15~-|
G|---------------------------------------------|
D|---------------------------------------------|
A|---------------------------------------------|
E|---------------------------------------------|

e|-12----12-12----12-12----12-14----14----14---|
B|-15b17----15b17----15b17------15~---15~--15~-|
G|---------------------------------------------|
D|---------------------------------------------|
A|---------------------------------------------|
E|---------------------------------------------|

e|------2-2-------------------------2-2----------2-2-2-2-|
B|-15/3-----3-3-3---------3-3------------3---3-----------|
G|----------------4-4-4-2------------------4---4---------|
D|-------------------------------------------------------|
A|-------------------------------------------------------|
E|-------------------------------------------------------|

e|-------14-14------------------------14-14------------------------|
B|-15-15-------15-15-17-17-15--15~----------15-15-17-17-15-15--15~-|
G|-----------------------------------------------------------------|
D|-----------------------------------------------------------------|
A|-----------------------------------------------------------------|
E|-----------------------------------------------------------------|

e|-12----12-12----12-12----12-14----14---14----|
B|-15b17----15b17----15b17------15~---15~--15~-|
G|---------------------------------------------|
D|---------------------------------------------|
A|---------------------------------------------|
E|---------------------------------------------|

e|-12----12-12----12-12----12-14----14----14---|
B|-15b17----15b17----15b17------15~---15~--15~-|
G|---------------------------------------------|
D|---------------------------------------------|
A|---------------------------------------------|
E|---------------------------------------------|


Then all you want is some vacant guitar sounds over the bass...

Try slide on the 7th to 9th frets on your D string...

The ending is just those 2 notes repeated.


Ragoo

Guitar 1 - Main Riff

e---2----2----2----2----2--------------------------------|
B----------------------------3----3----3----3----3/2/0---|
G--------------------------------------------------------|
D--4----4----4----4----4----4----4----4----4----4--------|
A-5----5----5----5----5----5----5----5----5----5---------|
E--------------------------------------------------------|

Guitar 2

e--------------------------|
B--------------------------|
G-11-11-11-11-7--7---------|
D-x--x--x--x--x--x----5----|
A-9--9--9--9--9--9----5----|
E-10-10-10-10-10-10---3/10-|

Guitar 1

e-5----------------5---------|
B-7-5-7b(8)b7------7-5-7b8p7-|
G----------------------------| + some variations on those notes.
D----------------------------|
A----------------------------|
E----------------------------|

Chorus
Guitar 2                 Guitar 1

e------------             ------2-------5--|
B------------             -0-2-3--0-2-3----|
G------------             -----------------|
D-9-----5--7-             -----------------|
A-9-----5--7-             -----------------|
E-7-----3--5-             -----------------|

The last bit is hard to suss out, but that’s about all I have time for. Try up around 
14th fret on your e string to get an idea of what you ought to be doing.  Sorry this isn’t 
complete 2 tabs but hey, it’s 1 and a bit for the price of 1. (Which Ironically on this site is free :D)
reproducciones 145
Acordes para:

    0 comentarios

    mostrar más comentarios

    ¿Conseguiste tocar?

    0 tocaron 0 aún no

    ¡Graba un vídeo tocando True Love Way y envianoslo!

    00:00 / 00:00
    outros vídeos desta música
    repetir qualidade Automático
    Outros vídeos desta música
    00:00 / 00:00
    Automático
    OK