Cifra Club

Waste a Moment

Kings Of Leon

Tablatura: Principal (guitarra)
Tom: D
[Intro]
H.A. (mas funciona como H.N também)
E|---7-----------7---|
B|---7------------7--|
G|---7---------------|
D|-------------------|
A|-------------------|
E|-------------------|

[Riff 1]
E|-----------------------------------------------------------------------------------------------|
B|-----------------------------------------------------------------------------------------------|
G|---11--11--11--11--11--11--12--12--12--4---4---4---4---4---7---7---7---7---7---2---2---2---2---|  (3x)
D|--0---0--0---0---0---0---0---0---0---0---0---0---0---0---0---0---0---0---0---0---0---0---0-----|
A|-----------------------------------------------------------------------------------------------|
E|-----------------------------------------------------------------------------------------------|

All the way from Waco to WeHo

With a rabbit on her chain
D
Drove a little slick car to tend bar
        
With the static on her brain

[Riff 1]
E|-----------------------------------------------------------------------------------------------|
B|-----------------------------------------------------------------------------------------------|
G|---11--11--11--11--11--11--12--12--12--4---4---4---4---4---7---7---7---7---7---2---2---2---2---|  (4x)
D|--0---0--0---0---0---0---0---0---0---0---0---0---0---0---0---0---0---0---0---0---0---0---0-----|
A|-----------------------------------------------------------------------------------------------|
E|-----------------------------------------------------------------------------------------------|

She is a little burner, burner
                        
Gonna throw you to the flame

Little ticking time bomb, time bomb
        
Gonna blow us all away

D   G Bm                G
Ohhh, take the time to waste a moment
D   G Bm        G
Ohhh, never ask to be forgiven

[Solo]

E|-----14-12-14-10---14-12-12-10--14----------14-12b13---14-12-14-10---14-12-12-10----|
B|----------------------------------15-14-12------------------------------------------|
G|------------------------------------------------------------------------------------|
D|------------------------------------------------------------------------------------|
A|------------------------------------------------------------------------------------|
E|------------------------------------------------------------------------------------|

Sexy was her boyfriend, with no kin

Always running from the law
D
Every other weekend, week ends

with his back at her claw

[Riff 1]
E|-----------------------------------------------------------------------------------------------|
B|-----------------------------------------------------------------------------------------------|
G|---11--11--11--11--11--11--12--12--12--4---4---4---4---4---7---7---7---7---7---2---2---2---2---|  (4x)
D|--0---0--0---0---0---0---0---0---0---0---0---0---0---0---0---0---0---0---0---0---0---0---0-----|
A|-----------------------------------------------------------------------------------------------|
E|-----------------------------------------------------------------------------------------------|

He's a live wire, wire, shooting sparks in the night

He's a little higher, higher

with the beat in his sights

D   G Bm               G
Ohhh, take the time to waste a moment
D   G Bm                 G
Ohhh, face the world the lines are broken
D   G Bm                       G
Ohhh, name a price to all this living
D   G Bm           G
Ohhh, never ask to be forgiven

[Solo 2]

E|-----14-12-14-10---14-12-12-10--14----------14-12b13---14-12-14-10---14-12-12-10-----14-12-14-10---14-12-12-10---14-12b13-|
B|----------------------------------15-14-12--------------------------------------------------------------------------------|
G|--------------------------------------------------------------------------------------------------------------------------|
D|--------------------------------------------------------------------------------------------------------------------------|
A|--------------------------------------------------------------------------------------------------------------------------|
E|--------------------------------------------------------------------------------------------------------------------------|

D   G Bm               G
Ohhh, take the time to waste a moment
D   G Bm                 G
Ohhh, face the world the lines are broken
D   G Bm                       G
Ohhh, name a price to all this living
D   G Bm               G
Ohhh, never ask to be forgiven

[Riff Final]

E|-------------------------------------------------------------------------------|
B|--------------------------------------------------------------------------10---|
G|---11--11--11--11--11--11--12--12--12--4---4---4---4---4---7---7---7---7-------|
D|--0---0--0---0---0---0---0---0---0---0---0---0---0---0---0---0---0---0---------|
A|-------------------------------------------------------------------------------|
E|-------------------------------------------------------------------------------|
reproducciones 307
Acordes para:

    0 comentarios

    mostrar más comentarios

    ¿Conseguiste tocar?

    1 tocaron 1 aún no

    ¡Graba un vídeo tocando Waste a Moment y envianoslo!

    00:00 / 00:00
    outros vídeos desta música
    repetir qualidade Automático
    Outros vídeos desta música
    00:00 / 00:00
    Automático
    OK