Cifra Club

We are southamerican rockers

Los Prisioneros

Cifrado: Principal (guitarra y guitarra eléctrica)
tono: G
    G     B      C#   Dm   A7
E|--3-----7------9----9----5------------------|
B|--3-----7------9----9----5------------------|
G|--4-----8------10---9----6------------------|
D|--5-----9------11---11---5------------------|
A|--------------------11---7------------------|
e|--------------------------------------------|

Son hermosos ruidos,

que salen de las tiendas

atraviesan a la gente y le mueven los pies.

Baterías danzantes

guitarras afiladas,

voces escépticas que cantan de política.

Intro
|--------------------------------------------------|
|--------------------------------------------------|
|--------------------------------------------------|
|--0-3-4h5-5-5-5-4h5-5-5-5-10-8-0-4h5-5-4h5------5-|
|--------------------------------------------3-2---|
|--------------------------------------------------|
 
  G
No te asustes, es mejor que te boten,
  G
hoy no has llegado a tu trabajo.
  G 
No atiendas el mensaje, atiende los golpes,
  G
decimos lo que sabes, pero sabemos cómo hablar.
  B
Mezclando el rock`n roll, pura música basura,
  C#
un poco transformada para que suene igual 
  B
pintamos el mono, pero nos da lo mismo,
  C#
plagiando y copiando como todos los demás.
  A7
ELvis!...Sacúdete en tu cripta!
B|------------------------1-
G|------5-0---------0---2---         X  2
D|--0-2-----------2---3-----
A|----------0-2-3-----------
We are southamerican rockers
B|------------------------1-
G|------5-0---------0---2---         X  2
D|--0-2-----------2---3-----
A|----------0-2-3-----------
Nousommes rockers sudamericaines
B|------------------------1-
G|------5-0---------0---2---
D|--0-2-----------2---3-----
A|----------0-2-3-----------

No nos acompleja revolver los estilos,

mientras huelan a gringo (yankee) y se puedan bailar.

Nuestra pésima música no es placer para dioses,

jamás ganaremos la inmortalidad (pajero).

Flores y amores, asunto de niñas.

Gritar y patear es aprovechar (tu sangre joven!)

Este es un negocio, pero un pésimo negocio

Mentir y robar, pero mejor funcionar.

Presley!...Sacúdete en tu cripta!
B|---------------------------------
G|---------------------------------
D|---3--6--8--6-1--5--8--11--8--4--
A|-4-------------------------------
We are southamerican...
B|---------------------------------
G|---------------------------------
D|---3--6--8--6-1--5--8--11--8--4--
A|-4-------------------------------
Southamerican rockers,
B|---------------------------------
G|---------------------------------
D|---3--6--8--6-1--5--8--11--8--4--
A|-4-------------------------------
southamerican ilusos,
B|---------------------------------
G|---------------------------------
D|---3--6--8--6-1--5--8--11--8--4--
A|-4-------------------------------
sin mujeres, sin millones, sin cadillac.
B|---------------------------------
G|---------------------------------
D|---3--6--8--6-1--5--8--11--8--4--
A|-4-------------------------------
Lo hacemos perfecto, lo hacemos fantástico
              C#      Dm
y sentimos envidia de los rockers de verdad...
B|---------------------------------
G|---------------------------------
D|---3--6--8--6-1--5--8--11--8--4--
A|-4-------------------------------
Sin ninguna vergüenza!

E|--15--15--15--15-20-19-17-15---------------|x 2
B|----15--15--15-----------------------------|
G|-------------------------------------------|

B|-------------------------------------------|
G|--0-1---1---1---1--------------------------|x 2
D|------4---4---4----------------------------|
A|------------------4-4-0-1------------------|

E|----5h16--11--13-14-11--15h17-17h19--------|x 2
B|-------------------------------------------|
G|-------------------------------------------|
D|-------------------------------------------|

E|---15-15-15-15-15-15-15--------------------|
B|---15-15-15-15-15-15-15--------------------|

B|------------------------1-
G|------5-0---------0---2---         
D|--0-2-----------2---3-----
A|----------0-2-3-----------
We are southamerican rockers
B|------------------------1-
G|------5-0---------0---2---         
D|--0-2-----------2---3-----
A|----------0-2-3-----------
Nousommes rockers sudamericaines
B|------------------------1-
G|------5-0---------0---2---
D|--0-2-----------2---3-----
A|----------0-2-3-----------
00:00 / 00:00
Otros videos de esta canción
Repetir
Otros videos de esta canción
Composición de Los prisioneros
Colaboración y revisión:
  • Anna Aggio
1.527 vistas
    • ½ Tono
    • A
    • Bb
    • B
    • C
    • Db
    • D
    • Eb
    • E
    • F
    • F#
    • G
    • Ab
  • Agregar a la lista

    0 comentarios

    Ver todos los comentarios

    ¿Lograste tocar?

    0 Tocaron 0 Aún no

    ¡Graba un video tocando We are southamerican rockers y envíanoslo!

    00:00 / 00:00
    OK