In Memoriam

Mägo De Oz

tono: F
(intro)

E|---------------------------------------|
B|-------1--------1--------1--------1----|
G|-----0---0----0---0----0---0----0---0--|
D|---------------------------------------|
A|--3---------3---------2-------2--------|
E|---------------------------------------|

E|---------------3--------3--------3------|
B|-----1-----------1--------1--------1----|
G|---0---0----0--------0---------0--------|
D|----------------------------------------|
A|-0--------0-----------------------------|
E|-------------------1---------1----------|


G         E           Am  G                  F
su camino nunca encontro, que daba tanto por andar

E                 Am
que ella decido volar

(coro)
F                                   Em         Am
y si marcho, para encontrar, la sonrisa que perdio

F                 Am               G
y se durmio, para dejar ya de llorar

F                                  Em             Am
y se marcho, quiso volar, ahora es brisa ahora es paz

Dm                   F              G
y se marcho, y ahora tiene un nuevo hogar, la eternidad

(Repete intro)

de tanto esperar se impaciento 
de tanto sufrir su mirada se apago 

G         E           Am
su camino nunca encontro 

        G           F
quedaba tanto por andar 

         E          Am
Que ella decidio volar 

 

F                                   Em         Am
y si marcho, para encontrar, la sonrisa que perdio

F                 Am               G
y se durmio, para dejar ya de llorar

F                                  Em             Am
y se marcho, quiso volar, ahora es brisa ahora es paz

Dm                   F              G
y se marcho, y ahora tiene un nuevo hogar



G#                    Bb     C
hoy te escribo y te pido perdon 

G#                 D#   Bb
si no te ayude a vivir 

G#                       Bb    Gm
pues sabes que encontre otro amor

  G#       Bb         C
y ella es todo lo que soy 

(solo)

Am F G Em

F Dm Em

Am F G Em

F G Am

G  E Am

G F E Am


F                                   Em         Am
y si marcho, para encontrar, la sonrisa que perdio

F                 Am               G
y se durmio, para dejar ya de llorar

F                                  Em             Am
y se marcho, quiso volar, ahora es brisa ahora es paz

Dm                   F              G                C
y se marcho, y ahora tiene un nuevo hogar, la eternidad
Página 1 / 1

Letras y titulo
Acordes y artista

restablecer los ajustes
OK