Cifra Club

Quero Ser Feliz Também

Natiruts

Tab de bajo: Principal
Intro:

Gb|-7-9-9-9-7-----------------------------------------
Db|-----------10-8h9----------------------------------
Ab|------------------10-11h12-11h12-------------------
Eb|---------------------------------------------------

Gb|-7-9-9-9-7-----------------------------------------
Db|-----------10-8h9----------------------------------
Ab|------------------10-11h12-11h12-------------------
Eb|---------------------------------------------------

Gb|-7-9-9-9-7-----------------------------------------
Db|---------------------------------------------------
Ab|---------------------------------------------------
Eb|---------------------------------------------------

Primeira Parte:

Gb|---------------------------------------------------
Db|-----7-7-7-7-5-------------------------------------
Ab|-7-------------7-5-------5-------------------------
Eb|---7---------------5-5-8---------------------------

Gb|---------------------------------------------------
Db|-----7-7-7-7-5-------------------------------------
Ab|-7-------------7-5-------5-------------------------
Eb|---7---------------5-5-8---------------------------

Gb|---------------------------------------------------
Db|-----7-7-7-7-5-------------------------------------
Ab|-7-------------7-5-------5-------------------------
Eb|---7---------------5-5-8---------------------------

Variação 1:
Gb|---------------------------------------------------
Db|---------------------------------------------------
Ab|-7---7-7-6-5---5-5-5-5-5---------------------------
Eb|---7---------5-------------------------------------

Cresça!
Independente do que aconteça
Eu não quero que você esqueça
Que eu gosto muito de você
Ah! Ah! Ah!

Gb|---------------------------------------------------
Db|-----7-7-7-7-5-------------------------------------
Ab|-7-------------7-5-------5-------------------------
Eb|---7---------------5-5-8---------------------------

Gb|---------------------------------------------------
Db|-----7-7-7-7-5-------------------------------------
Ab|-7-------------7-5-------5-------------------------
Eb|---7---------------5-5-8---------------------------

Gb|---------------------------------------------------
Db|-----7-7-7-7-5-------------------------------------
Ab|-7-------------7-5-------5-------------------------
Eb|---7---------------5-5-8---------------------------

Variação 2:
Gb|---------------------------------------------------
Db|---------------------------------------------------
Ab|-7---7-7-6-5---5-5-5-5-5-6-------------------------
Eb|---7---------5-------------------------------------

Gb|---------------------------------------------------
Db|---------------------------------------------------
Ab|-7---7-7-6-5---5-5-5-5-5-6-------------------------
Eb|---7---------5-------------------------------------

Variação 3:
Gb|---------------------------------------------------
Db|---------------------------------------------------
Ab|-7---7-7-------------------------------------------
Eb|---7-----7-5-5-5-5---------------------------------

(...)
Chego!
E sinto o gosto do teu beijo
É muito mais do que desejo
Me dá vontade de ficar
Teu olhar
É forte como água do mar
Vem me dar
Novo sentido prá viver
Encantar a noite...

Refrão:

Gb|---------------------------------------------------
Db|---------------------------------------------------
Ab|-5-5---3-5-5-5---3-5-6h7---------------------------
Eb|-----5---------5-----------------------------------

Gb|---------------------------------------------------
Db|---------------------------------------------------
Ab|---------------------3-----------------------------
Eb|-5-5-0-3-5-5-5-0-3-5-------------------------------

Gb|---------------------------------------------------
Db|---------------------------------------------------
Ab|-5-5---3-5-5-5---3-5-6h7---------------------------
Eb|-----5---------5-----------------------------------

Gb|---------------------------------------------------
Db|---------------------------------------------------
Ab|---------------------3-----------------------------
Eb|-5-5-0-3-5-5-5-0-3-5-------------------------------

(...)
Quero ser feliz também
Navegar nas águas do teu mar
Desejar para tudo o que vem
Flores brancas
Paz e Iemanjá!

Interlúdio:

Gb|---------------------------------------------------
Db|-----7h9-7h9-----------5h7-5h7---------------------
Ab|-7-7---------7-7-7-5-5---------5-5-5---------------  (4x)
Eb|---------------------------------------------------

Repetição Primeira Parte:

Gb|---------------------------------------------------
Db|---------------------------------------------------
Ab|-7p5-----------------------------------------------
Eb|---------------------------------------------------

Gb|---7-9-9-9-7---------------------------------------
Db|-9-----------10-8h9-5h7-5h7-5h7-7-7-7-5h7----------
Ab|---------------------------------------------------
Eb|---------------------------------------------------

(...)
Cresça!
Independente do que aconteça
Eu não quero que você esqueça
Que eu gosto muito de você
Ah! Ah! Ah!

Gb|---------------------------------------------------
Db|-----7-7-7-7-5-------------------------------------
Ab|-7-------------7-5-------5-------------------------
Eb|---7---------------5-5-8---------------------------

Gb|---------------------------------------------------
Db|-----7-7-7-7-5-------------------------------------
Ab|-7-------------7-5-------5-------------------------
Eb|---7---------------5-5-8---------------------------

Gb|---------------------------------------------------
Db|-----7-7-7-7-5-------------------------------------
Ab|-7-------------7-5-------5-------------------------
Eb|---7---------------5-5-8---------------------------

Variação 2:
Gb|---------------------------------------------------
Db|---------------------------------------------------
Ab|-7---7-7-6-5---5-5-5-5-5-6-------------------------
Eb|---7---------5-------------------------------------

Gb|---------------------------------------------------
Db|---------------------------------------------------
Ab|-7---7-7-6-5---5-5-5-5-5-6-------------------------
Eb|---7---------5-------------------------------------

Variação 3:
Gb|---------------------------------------------------
Db|---------------------------------------------------
Ab|-7---7-7-------------------------------------------
Eb|---7-----7-5-5-5-5---------------------------------

(...)
Chego!
E sinto o gosto do teu beijo
É muito mais do que desejo
Me dá vontade de ficar
Teu olhar
É forte como água do mar
Vem me dar
Novo sentido prá viver
Encantar a noite...

Refrão 2x:

Gb|---------------------------------------------------
Db|---------------------------------------------------
Ab|-5-5---3-5-5-5---3-5-6h7---------------------------
Eb|-----5---------5-----------------------------------

Gb|---------------------------------------------------
Db|---------------------------------------------------
Ab|---------------------3-----------------------------
Eb|-5-5-0-3-5-5-5-0-3-5-------------------------------

Gb|---------------------------------------------------
Db|---------------------------------------------------
Ab|-5-5---3-5-5-5---3-5-6h7---------------------------
Eb|-----5---------5-----------------------------------

Gb|---------------------------------------------------
Db|---------------------------------------------------
Ab|---------------------3-----------------------------
Eb|-5-5-0-3-5-5-5-0-3-5-------------------------------

(...)
Quero ser feliz também
Navegar nas águas do teu mar
Desejar para tudo o que vem
Flores brancas
Paz e Iemanjá! (2x)

Final:

Gb|---------------------------------------------------
Db|-----7h9-7h9-----------5h7-5h7---------------------
Ab|-7-7---------7-7-7-5-5---------5-5-5---------------  (4x)
Eb|---------------------------------------------------
reproducciones 791

0 comentarios

mostrar más comentarios

¿Conseguiste tocar?

32 tocaron 0 aún no

¡Graba un vídeo tocando Quero Ser Feliz Também y envianoslo!

00:00 / 00:00
outros vídeos desta música
repetir qualidade Automático
Outros vídeos desta música
00:00 / 00:00
Automático
Capítulos
  • Início
  • Tocando a música
  • Dicas e Afinação
  • Tocando Introdução
  • Notas da Introdução
  • Ensinando Introdução
  • Notas da Primeira Parte
  • Ensinando Primeira Parte
  • Ensinando Primeira Parte - Variação
  • Ensinando Primeira Parte - Variação 2
  • Ensinando Primeira Parte - Variação 3
  • Tocando Interlúdio - Repetição
  • Ensinando Ponte para repetição
  • Tocando Refrão
  • Notas do Refrão
  • Ensinando Refrão (Parte 1)
  • Ensinando Refrão (Parte 2)
  • Ensinando Refrão (Afinação Padrão)
  • Ensinando Refrão (baixo de 5 cordas)
  • Tocando trecho final
  • Ensinando Interlúdio
  • Encerramento
OK