Cifra Club

Aprenda

Under The Bridge

Red Hot Chili Peppers

Tablatura: Versão 4 (guitarra)
tono: D
E|------------------------------------------------------------------|
B|---3--------3-----------------------------------------------------|
G|--------2-----2---------------3--------3--------------------------|
D|------4---4------------------------4-----4----4--2--0-------------|
A|---5-------------4--2--0--------4----4-----------------2----------|
E|--------------------------4---2-----------------------------------|

E|------------------------------------------------------------------|
B|--3---------------3p5h3-------------------------------------------|
G|------------2-----------2----------------------3------------------|
D|--------4------4-----------4/6--6--------4--------4---------------|
A|--4/5-----5----------------5/7--7-----4-----4---------4--2--0-----|
E|-----------------------------------2---------------------------4--|

E|------------------------------------------------------------------|
B|---3--------3-----------------------------------------------------|
G|--------2-----2---------------3--------3--------------------------|
D|------4---4------------------------4-----4----4--2--0-------------|
A|---4/5-------------4--2--0--------4----4-----------------2--------|
E|--------------------------4---2-----------------------------------|

E|------------------------------------------------------------------|
B|--3---------------3p5h3-------------------------------------------|
G|------------2-----------2----------------------3---------3--------|
D|--------4------4-----------4/6--6--------4--------4--------4------|
A|--4/5-----5----------------5/7--7-----4-----4---------4------4\---|
E|-----------------------------------2------------------------------|

E               B
   Sometimes I feel
       C#m           G#  A
Like I don't have a partner
 E             B
  Sometimes I feel
      C#m        A           E      B
Like my only friend is the city I live in
      C#m     G#  A
  The city of Angels
 E          B
Lonely as I am
 C#m        A    E7+
Together we cry
E                   B
  I drive on her streets
       C#m         G#  A
'Cause shes' my companion
 E                  B
  I walk through her hills
  C#m                 A
'Cause she knows who I am
E                   B
  She sees my good deeds
         C#m      G#  A
And she kisses me windy
  E           B
   I never worry
    C#m       A    Emaj7
Now that is a lie

Refrão:
  F#m           E
I don't ever want to feel
 B      F#
Like I did that day
 F#m                    E
Take me to the place I love
B        F#m          E  B  C#m  G#  A
Take me all the way   E  B  C#m  A

     E          B
It's hard to believe
      C#m            G#   A
That there's nobody out there
      E           B
 It's hard to believe
      C#m      A9
That I'm all alone
    E           B
At least I have her love
     C#m      G#    A
The city she loves me
  E        B
Lonely as I am
   C#m      A    E7+
Together we cry

Ponte: A  C  G  Fmaj7
       A  C  G  Fmaj7
       A  C  G  Fmaj7  E7  G

   A                C
Under the bridge downtown
     G           Fmaj7
Is where I drew some blood
  A               C
Under the bridge downtown
   G         Fmaj7
I could not get enough
  A               C
Under the bridge downtown
  G        Fmaj7
Forget about my love
 A                C
Under the bridge downtown
G        Fmaj7      A C G Fmaj7
I gave my life away.
Final:
E|-0-0-0--0-------------|-0-0---0----------0---|-0--0-0-----------------|
B|-5-5-5--5-5--5-5--5-5-|-3-3---0-----0-1----1-|-5--5-5--5--5-5-5-8-5-5-|
G|-6-6-6--6-5--5-5--5-5-|-4-4---2--------------|-6--6-6--5--5-5-5-5-----|
D|-7-7-7--7-5--5-5--5-5-|-5-5---3--------------|-7--7-7--5--5-5-5-------|
A|----------------------|----------------------|------------------------|
E|----------------------|----------------------|------------------------|

E|-0--0-0--0---0---------|-0--0-0--------------|-0--0-0--0---0--0-0--|
B|-3--3-3--0---1-0-1-0---|-5--5-5-5--5-5-8-5---|-3--3-3--0---1--1-1/-|
G|-4--4-4--2---2-------2-|-6--6-6-5--5-5-----5-|-4--4-4--2---2--2-2/-|
D|-5--5-5--3---3---------|-7--7-7-5--7-7-------|-5--5-5--3---3--3-3/-|
A|-----------------------|---------------------|---------------------|
E|-----------------------|---------------------|---------------------|

E|-0--0-0-------------------|-0-------0---0-|----0------|
B|-5--5-5---5--5-5--5-------|-3--3----0---1-|----2------|
G|-6--6-6---5--5-5--5-7-5---|-4----0--2---2-|----2------|
D|-7--7-7---5--5-5--------7-|-5-------3---3-|----2------|
A|--------------------------|---------------|----0------|
E|--------------------------|---------------|-----------|

Composição de Anthony Kiedis / Chad Smith / Flea / John Frusciante
Colaboración y revision:
  • Luiz Vinicius
  • Lucas Figueiredo
250 reproducciones
  • Simplificar cifra
    • ½ Tono
    • A
    • Bb
    • B
    • C
    • Db
    • D
    • Eb
    • E
    • F
    • F#
    • G
    • Ab
  • Adicionar à lista

    0 comentarios

    Ver todos os comentários
    00:00 / 00:00
    outros vídeos desta música
    repetir qualidade Automático
    Outros vídeos desta música
    00:00 / 00:00
    Automático
    Capítulos
    • Início
    • Tocando a música
    • Acordes da Introdução
    • Tocando Introdução
    • Ensinando Introdução
    • Acordes da Primeira Parte
    • Tocando Primeira Parte
    • Ensinando Primeira Parte
    • Acordes do Refrão
    • Tocando Refrão
    • Ensinando Ritmo do Refrão
    • Ensinando Passagem
    • Tocando Segunda Parte
    • Ensinando Segunda Parte
    • Acordes da Terceira Parte
    • Tocando Terceira Parte
    • Ensinando Ritmo da Terceira Parte
    • Encerramento
    OK