Cifra Club

Guerra Fria (Part. Jorge e Mateus)

Sorriso Maroto

Acordes: Principal
reproducciones 275
Tono: C#
( E5  G5  Am7  E5 ) 2x


      E5            G5            Am7           E5
E|--------0-------------0-------------0-------------0------------|
B|------2---2---------4---4---------1---1---------2---2----------|
G|----0-------0-----0-------0-----0-------0-----0-------0--------|
D|--4-------------6-------------2-------------4------------------|
A|---------------------------------------------------------------|
E|---------------------------------------------------------------|


  Variação  E5      G5         Am7        G/B
E|--------0-------------0-------------------------------------|
B|------2-------------4-----------1----------3----------------|
G|----0-------------0-----------0----------0------------------|
D|--4-------------6-----------2----------0--------------------|
A|--------------------------0----------2----------------------|
E|------------------------------------------------------------|


Eu odeio quando você sai batendo a porta sem me escutar
Mas adoro quando sempre se arrepende volta e pede pra ficar
Sempre age por impulso, tem o dom de me ferir

Mas ao mesmo tempo só você me faz sorrir (Usar Variação)

Eu odeio quando mexe em minhas coisas vasculhando sem pedir
Mas adoro quando me dá seu carinho e assim me faz dormir
Muitas vezes durmo com vontade de me afastar
Mas acordo doido pra te encontrar
.
Refrão:

      C#/F           F#
Uma guerra fria dentro do meu peito
Ab
Não encontro um jeito
C#9      Ab/C       Bbm
Pra gente viver em paz
Ab                  F#
Já pensei em te deixar pra sempre
Ab                  Bbm
Só que eu te amo demais
        Ab/C
E por mais
   C#/F           F#
Que você me deixe no futuro
Ab
Vale o risco eu juro
C#                  C#/Bb
Nunca amei ninguém assim
F#            Ab            C#
Até você de mal faz bem pra mim

(Jorge e Mateus )

Eu odeio quando mexe em minha coisas vasculhando sem pedir
Mas adoro quando me dá seu carinho e assim me faz dormir
Muitas vezes durmo com vontade de me afastar
Mas acordo doido pra te encontrar

Refrão:

      C#/F           F#
Uma guerra fria dentro do meu peito
Ab
Não encontro um jeito
C#9              C#/Bb
Pra gente viver em paz
                  F#
Já pensei em te deixar pra sempre
Ab                  Bbm
Só que eu te amo demais
        Ab/C
E por mais
   C#/F           F#
Que você me deixe no futuro
Ab
Vale o risco eu juro
C#                  C#/Bb
Nunca amei ninguém assim
F#            Ab            Bbm7
Até você de mal faz bem pra mim

      C#/F           F#
Uma guerra fria dentro do meu peito
Ab
Não encontro um jeito
C#9              C#/Bb
Pra gente viver em paz
                  F#
Já pensei em te deixar pra sempre
Ab                  Bbm
Só que eu te amo demais
        Ab/C
E por mais
   C#/F           F#
Que você me deixe no futuro
Ab
Vale o risco eu juro
C#                  C#/Bb
Nunca amei ninguém assim
F#            Ab            C#
Até você de mal faz bem pra mim
F#            Ab            C#
Até você de mal faz bem pra mim

0 comentarios

    mostrar mas comentarios

    ¿Conseguiste tocar?

    19tocaron1aún no

    ¡Grave un vídeo tocando Guerra Fria (Part. Jorge e Mateus) y envie para nosotros!

    00:00 / 00:00
    outros vídeos desta música
    repetirqualidadeautomática
    Outro vídeos desta música
      00:00 / 00:00
      automática
      OK