Cifra Club

Weve Gotta Get Out Of This Place

The Animals

Tab de bajo: Principal
common time (4/4)
standard tuning (EADG)

INTRO/VERSE:

|--------3-2------|
|*---5-------5-3-*|
|*-3---3---------*|
|-----------------|
   1 2 & 3 & 4 &

CHORUS:

|-----------------|-3-3-3-3-5-5-5-5-|-----------------|
|-3-3-3-3-3-3-3-3-|-----------------|-3-3-3-3-3-3-3-3-|
|-----------------|-----------------|-----------------|
|-----------------|-----------------|-----------------|
  1 & 2 & 3 & 4 &   1 & 2 & 3 & 4 &   1 & 2 & 3 & 4 &

|-----------------|-----------------|-3-3-3-3-5-5-5-5-|
|-5-5-5-5---------|-3-3-3-3-3-3-3-3-|-----------------|
|---------3-3-3-3-|-----------------|-----------------|
|-----------------|-----------------|-----------------|
  1 & 2 & 3 & 4 &   1 & 2 & 3 & 4 &   1 & 2 & 3 & 4 &

|---------|---------|-----------|-----------|-----------|
|-0-------|-r-r-r-r-|-3---1-----|-----------|-3---1-----|
|---------|---------|-----------|-1---3-----|-----------|
|---------|---------|-----------|-----------|-----------|
  1 2 3 4   1 2 3 4   1 2 & 3 4   1 2 & 3 4   1 2 & 3 4

|-----------|
|-----------|
|-1---3-----|
|-----------|
  1 2 & 3 4

END:

|-----------|-----------|---------|
|-3---1-----|-----------|---------|
|-----------|-1---3-----|---------|
|-----------|-----------|---------|
  1 2 & 3 4   1 2 & 3 4   1 2 3 4

By: Johari Taylor
E-mail: *
reproducciones 78

0 comentarios

mostrar más comentarios

¿Conseguiste tocar?

0 tocaron 0 aún no

¡Graba un vídeo tocando Weve Gotta Get Out Of This Place y envianoslo!

00:00 / 00:00
outros vídeos desta música
repetir qualidade Automático
Outros vídeos desta música
00:00 / 00:00
Automático
OK