Cifra Club

Nós Vamos Invadir Sua Praia

Ultraje a Rigor

Tablatura: Principal (guitarra)
Tom: G
[Intro]  Am  Bm  C#  D  Em

Guitarra 2
E|-0--2--5--6--6/7-6/7-6/7-6/7-6/7--12---16-16-16-16-16-16-16---|
B|-1--3--5--6--6/8-6/8-6/8-6/8-6/8--13---17-17-17-17-17-17-17---|
G|--------------------------------------------------------------|
D|--------------------------------------------------------------|
A|--------------------------------------------------------------|
E|--------------------------------------------------------------|

Baixo fica no Mi slepando
G|-----|
D|-----|
A|--7--| (8x)
E|-----|

Guitarra 2 em cima do baixo
E|---------------|
B|---------------|
G|--9--7--6--4---|
D|--9--7--6--4---| (8x)
A|--7--5--4--2---|
E|---------------|

Em
Daqui do morro dá pra ver tão legal
O que acontece aí no seu litoral
Am
Nós gostamos de tudo , nós queremos é mais
Em
Do alto da cidade até a beira do cais
Bm                   Am
Mais do que um bom bronzeado
Em
Nós queremos estar do seu lado
Nós tamos entrando sem óleo nem creme
Precisando a gente se espreme
Am
Trazendo a farofa e a galinha
Em
Levando também a vitrolinha
Bm                  Am
Separa um lugar nessa areia
Em
Nós vamos chacoalhar a sua aldeia

Mistura sua laia
Ou foge da raia
Sai da tocaia
Pula na baia
C     B                 Em
Agora nós vamos invadir sua praia

Agora se você vai se incomodar
Então é melhor se mudar
Am
Não adianta nem nos desprezar
Em
Se a gente acostumar a gente vai ficar
Bm              Am
A gente tá querendo variar 
Em
E a sua praia vem bem a calhar
Não precisa ficar nervoso
Pode ser que você ache gostoso
Am
Ficar em companhia tão saudável
Em
Pode até lhe ser bastante recomendável

Bm                Am
A gente pode te cutucar
Em
Não tenha medo , não vai machucar
reproducciones 610
Acordes para:
    Composição: Roger Rocha Moreira Colaboración y revision:
    • João Sanches
    • Mauricio Braga
    • Thiago Barbosa

    0 comentarios

    mostrar más comentarios

    ¿Conseguiste tocar?

    53 tocaron 3 aún no

    ¡Graba un vídeo tocando Nós Vamos Invadir Sua Praia y envianoslo!

    00:00 / 00:00
    outros vídeos desta música
    repetir qualidade Automático
    Outros vídeos desta música
    00:00 / 00:00
    Automático
    OK