Cifra Club

Victim Of Love

Whitesnake

Tablatura: Principal (guitarra)
Tom: F
* * Repeat Once Unless Stated 
x   Mute 
 
Intro               x2 Verse                              x2 
E||---3--3-----3--1---|---3--3-----3--3-----1--1-----3--3---| 
B||*--3--3-----3--1--*|*--3--3-----3--3-----1--1-----3--3--*| 
G||---0--0-----0--0---|---0--0-----0--0-----0--0-----0--0---| 
D||---0--0-----0--2---|---0--0-----0--0-----2--2-----0--0---| 
A||*--X--X-----X-----*|*--X--X-----X--X--------------X--X--*| 
E||---3--3-----3------|---3--3-----3--3--------------3--3---| 
 
                                                x2 
E||---3--3-3-3---3--3-3-3---1--1-1-1---3--3-3-3---| 
B||*--3--3-3-3---3--3-3-3---1--1-1-1---3--3-3-3--*| 
G||---0--0-0-0---0--0-0-0---0--0-0-0---0--0-0-0---| 
D||---0--0-0-0---0--0-0-0---2--2-2-2---0--0-0-0---| 
A||*--X--X-X-X---X--X-X-X--------------X--X-X-X--*| 
E||---3--3-3-3---3--3-3-3--------------3--3-3-3---| 
 
Bridge 
E||-----------------------------------------------| 
B||-----------------------------------------------| 
G||--5--3----5--3----7--5----7------5-5-5--7-7-7--| 
D||--5--3----5--3----7--5----7------5-5-5--7-7-7--| 
A||--3--1----3--1----5--3----5------3-3-3--5-5-5--| 
E||-----------------------------------------------| 
 
Chorus 
E||-------------------------------3--| 
B||-------------------------------3--| 
G||-------------------5--3--------0--| 
D||--5555-5--3333-3---5--3--5555--0--| 
A||--5555-5--3333-3---3--1--5555--X--| 
E||--3333-3--1111-1---------3333--3--| 
 
Chorus Continued 
E||-------------------------------| 
B||-------------------------------| 
G||-------------------5--3--------| 
D||--5555-5--3333-3---5--3--5555--| 
A||--5555-5--3333-3---3--1--5555--| 
E||--3333-3--1111-1---------3333--| 
 
Repeat From Verse Then Go To Solo 
Then Play Bridge 
Chorus To Fade
reproducciones 54
Acordes para:
    Composição: David Coverdale Colaboración y revision:
    • Ludmilla Correa

    0 comentarios

    mostrar más comentarios

    ¿Conseguiste tocar?

    0 tocaron 0 aún no

    ¡Graba un vídeo tocando Victim Of Love y envianoslo!

    00:00 / 00:00
    outros vídeos desta música
    repetir qualidade Automático
    Outros vídeos desta música
    00:00 / 00:00
    Automático
    OK