Cifra Club

Dou a Vida Por Um Beijo

Zezé Di Camargo & Luciano

Cifrado: Principal (guitarra y guitarra eléctrica)
tono: Fm (con acordes en la forma de Em) Capotraste en 1ª casa
[Intro]

   G           Am         C          G
E|----------------------------------------------------|
B|----------------------------------------------------|
G|----------------------------------------------------|
D|0-0-0-0h2-0--2-2-2-2h4-2--2-2-2-4/5-2--0-0-0-0h2-0--|
A|----------------------------------------------------|
E|----------------------------------------------------|

                                    Am
E|-10-8--7--------------------------------------------|
B|-12-10-8-----10-8-10-8-7-5-7-5-3-3/5----------------|
G|-------------12-9-12-9-7-5-7-5-4-4/5----------------|
D|----------------------------------------------------|
A|----------------------------------------------------|
E|----------------------------------------------------|

[Primeira Parte]

 Am                  G
Difícil demais, te amar assim
 Am                    G
Minha timidez tem que ter um fim
  Am                   G
Preciso perder o medo de falar
  Am                      G
Pra não te perder vou me declarar

[Pré-Refrão]

 G                            Am
Morro de saudade quando você some
                         G/B  C
Dá uma vontade de gritar seu nome
                             G
Quase uma loucura, uma obsessão

  G                              Am
Pra me sentir feliz só tem uma saída
                             G/B  C
Fazer você ficar de vez na minha vida
                               D
Perto dos meus olhos e do coração

[Refrão]

G     D/F# Em        C         G
Eu te amo,    eu preciso te dizer
     D/F#      Am      G/B  C   D/F#  G
Todo dia, toda noite o meu sonho é você
      D/F#  Em      C               G
Eu te amo,    é paixão que não tem fim
     D/F#          Am     G/B  C    D/F#    G
Dou a vida por um beijo quero ter você pra mim

[Solo]

   G           Am         C          G
E|----------------------------------------------------|
B|----------------------------------------------------|
G|----------------------------------------------------|
D|0-0-0-0h2-0--2-2-2-2h4-2--2-2-2-4/5-2--0-0-0-0h2-0--| (2x)
A|----------------------------------------------------|
E|----------------------------------------------------|

                                    Am
E|-10-8--7--------------------------------------------|
B|-12-10-8-----10-8-10-8-7-5-7-5-3-3/5----------------|
G|-------------12-9-12-9-7-5-7-5-4-4/5----------------|
D|----------------------------------------------------|
A|----------------------------------------------------|
E|----------------------------------------------------|

[Primeira Parte]

 Am                  G
Difícil demais, te amar assim
 Am                    G
Minha timidez tem que ter um fim
  Am                   G
Preciso perder o medo de falar
  Am                      G
Pra não te perder vou me declarar

[Pré-Refrão]

 G                            Am
Morro de saudade quando você some
                         G/B  C
Dá uma vontade de gritar seu nome
                             G
Quase uma loucura, uma obsessão

  G                              Am
Pra me sentir feliz só tem uma saída
                             G/B  C
Fazer você ficar de vez na minha vida
                               D
Perto dos meus olhos e do coração

[Refrão]

G     D/F# Em        C         G
Eu te amo,    eu preciso te dizer
     D/F#      Am      G/B  C   D/F#  G
Todo dia, toda noite o meu sonho é você
      D/F#  Em      C               G
Eu te amo,    é paixão que não tem fim
     D/F#          Am     G/B  C    D/F#    G
Dou a vida por um beijo quero ter você pra mim

E|---10-8-7---------------------------------------|
B|----------10-8-10-8-7-7-------------------------|
G|---------------------9-9-7-7h9------------------|
D|------------------------------------------------|
A|------------------------------------------------|
E|------------------------------------------------|
00:00 / 00:00
Otros videos de esta canción
Repetir
Otros videos de esta canción
Composición de Antonio Luiz / Cecílio Nena / Lalo Prado
15.456 exhibiciones
    • ½ Tono
    • Am
    • Bbm
    • Bm
    • Cm
    • C#m
    • Dm
    • Ebm
    • Em
    • Fm
    • F#m
    • Gm
    • G#m
  • Agregar a la lista
    00:00 / 00:00
    OK