Cifra Club

Dou a Vida Por Um Beijo

Zezé Di Camargo e Luciano

Cifrado: Principal (guitarra y guitarra eléctrica)
tono: Fm (con acordes en la forma de Em) Capotraste en 1ª casa
[Intro]

   G           Am         C          G
E|-----------------------------------------------|
B|-----------------------------------------------|
G|-----------------------------------------------|
D|-0-0-0h3-0---3-3-3h5-3--3-3-3/5-3--0-0-0-/3-0--| (2x)
A|-----------------------------------------------|
E|-----------------------------------------------|

                                    Am
E|-11-9-8----------------------------------------|
B|--------11-9--11-9-8--------------2------------|
G|---------------------10--12-10-8--3------------|
D|----------------------------------3------------|
A|-----------------------------------------------|
E|-----------------------------------------------|

[Primeira Parte]

 Am                  G
Difícil demais, te amar assim
 Am                    G
Minha timidez tem que ter um fim
  Am                   G
Preciso perder o medo de falar
  Am                      G
Pra não te perder vou me declarar

[Pré-Refrão]

 G                            Am
Morro de saudade quando você some
                         G/B  C
Dá uma vontade de gritar seu nome
                             G
Quase uma loucura, uma obsessão

  G                              Am
Pra me sentir feliz só tem uma saída
                             G/B  C
Fazer você ficar de vez na minha vida
                               D
Perto dos meus olhos e do coração

[Refrão]

G     D/F# Em        C         G
Eu te amo,    eu preciso te dizer
     D/F#      Am      G/B  C   D/F#  G
Todo dia, toda noite o meu sonho é você
      D/F#  Em      C               G
Eu te amo,    é paixão que não tem fim
     D/F#          Am     G/B  C    D/F#    G
Dou a vida por um beijo quero ter você pra mim

[Solo]

   G           Am         C          G
E|-----------------------------------------------|
B|-----------------------------------------------|
G|-----------------------------------------------|
D|-0-0-0h3-0---3-3-3h5-3--3-3-3/5-3--0-0-0-/3-0--| (2x)
A|-----------------------------------------------|
E|-----------------------------------------------|
                                    Am
E|-11-9-8----------------------------------------|
B|--------11-9--11-9-8--------------2------------|
G|---------------------10--12-10-8--3------------|
D|----------------------------------3------------|
A|-----------------------------------------------|
E|-----------------------------------------------|

[Primeira Parte]

 Am                  G
Difícil demais, te amar assim
 Am                    G
Minha timidez tem que ter um fim
  Am                   G
Preciso perder o medo de falar
  Am                      G
Pra não te perder vou me declarar

[Pré-Refrão]

 G                            Am
Morro de saudade quando você some
                         G/B  C
Dá uma vontade de gritar seu nome
                             G
Quase uma loucura, uma obsessão

  G                              Am
Pra me sentir feliz só tem uma saída
                             G/B  C
Fazer você ficar de vez na minha vida
                               D
Perto dos meus olhos e do coração

[Refrão]

G     D/F# Em        C         G
Eu te amo,    eu preciso te dizer
     D/F#      Am      G/B  C   D/F#  G
Todo dia, toda noite o meu sonho é você
      D/F#  Em      C               G
Eu te amo,    é paixão que não tem fim
     D/F#          Am     G/B  C    D/F#    G
Dou a vida por um beijo quero ter você pra mim

E|---11-9-8---------------------------------------|
B|----------11-9-11-9-8---------------------------|
G|----------------------10-8----------------------|
D|----------------------------11-9----------------|
A|------------------------------------------------|
E|------------------------------------------------|
Composición de Antonio Luiz / Cecílio Nena / Lalo Prado
13.746 vistas
    • ½ Tono
    • Am
    • Bbm
    • Bm
    • Cm
    • C#m
    • Dm
    • Ebm
    • Em
    • Fm
    • F#m
    • Gm
    • G#m
  • Agregar a la lista

    0 comentarios

    Ver todos los comentarios

    ¿Lograste tocar?

    70 Tocaron 28 Aún no

    ¡Graba un video tocando Dou a Vida Por Um Beijo y envíanoslo!

    00:00 / 00:00
    Outros vídeos desta música
    Repetir Calidad Automático
    Outros vídeos desta música
    00:00 / 00:00
    Automático
    OK