Cifra Club

Sem Medo de Ser Feliz

Zezé Di Camargo e Luciano

Cifrado: Principal (guitarra y guitarra eléctrica)
tono: G (con acordes en la forma de E) Capotraste en 3ª casa
[Intro] E

[Solo sem capo]

E|-3-5-5/7-5-3-5-3-5-5/7--------------------|
B|------------------------------------------|
G|-4-5-5/7-5-4-5-4-5-5/7--------------------|
D|------------------------------------------|
A|------------------------------------------|
E|------------------------------------------|

E|-3-5-5/7-5-3-5-3-5-3----------------------|
B|-4-5-5/7-5-4-5-4-5-4----------------------|
G|------------------------------------------|
D|------------------------------------------|
A|------------------------------------------|
E|------------------------------------------|

E|-3-5-5/7-5-3-5-3-5-5/7--------------------|
B|------------------------------------------|
G|-4-5-5/7-5-4-5-4-5-5/7--------------------|
D|------------------------------------------|
A|------------------------------------------|
E|------------------------------------------|

E|-3-5-5/7-5-3-5-3-5-3----------------------|
B|-4-5-5/7-5-4-5-4-5-4----------------------|
G|------------------------------------------|
D|------------------------------------------|
A|------------------------------------------|
E|------------------------------------------|

[Primeira Parte]

 E                     B
Tira essa paixão da cabeça
 A                       E
Tira essa tristeza no olhar
                         B
Já não faz sentido essa busca
 A                     E
Já não vale a pena chorar
          B             A       
Tempo perdido, amor bandido
            E
Que ele te fez
          B                  A    
Final da história, você sem rumo 
          E
Mais uma vez
                      
E como o rio busca o mar
              B
Você vem me procurar
     A                                     
E encontra em meu peito esse amor
                     E  
Que ele não quis te dar

[Refrão]
        
   E                        
Então viaja no meu corpo
             G#7
Sem medo de ser feliz
         A             
E eu te dou meu amor
       B        E
Faço amor como nunca fiz

           B
Perco a cabeça, me queimo em seu fogo
         E
Eu sem juízo, faço o seu jogo
              B            
Sou seu brinquedo 
                            E
O seu presente que caiu do céu
         B
Faço de tudo, pra te agradar
                E
Dorme em meus braços te faço sonhar
        A      B
Mas nem amanheceu
           E   B/D#  C#m
Você já me esque____ceu
 A                 B
Mais uma vez você vai
 G#7               C#9
Leva um pedaço de mim
 F#m                B      
Mais uma vez vou ficar 
                E
Te esperando aqui

[Primeira Parte]

 E                     B
Tira essa paixão da cabeça
 A                       E
Tira essa tristeza no olhar
                         B
Já não faz sentido essa busca
 A                     E
Já não vale a pena chorar
          B             A       
Tempo perdido, amor bandido
            E
Que ele te fez
          B                  A    
Final da história, você sem rumo 
          E
Mais uma vez
                      
E como o rio busca o mar
              B
Você vem me procurar
     A                                     
E encontra em meu peito esse amor
                     E  
Que ele não quis te dar

[Refrão]
        
   E                        
Então viaja no meu corpo
             G#7
Sem medo de ser feliz
         A             
E eu te dou meu amor
       B        E
Faço amor como nunca fiz

           B
Perco a cabeça, me queimo em seu fogo
         E
Eu sem juízo, faço o seu jogo
              B            
Sou seu brinquedo 
                            E
O seu presente que caiu do céu
         B
Faço de tudo, pra te agradar
                E
Dorme em meus braços te faço sonhar
        A      B
Mas nem amanheceu
           E   B/D#  C#m
Você já me esque____ceu
 A                 B
Mais uma vez você vai
 G#7               C#9
Leva um pedaço de mim
 F#m                B      
Mais uma vez vou ficar 
                E
Te esperando aqui
 A                 B
Mais uma vez você vai
 G#7               C#9
Leva um pedaço de mim
 F#m                B      
Mais uma vez vou ficar 
                A  E
Te esperando aqui

[Final] E

[Solo sem capo]

E|-3-5-5/7-5-3-5-3-5-5/7--------------------|
B|------------------------------------------|
G|-4-5-5/7-5-4-5-4-5-5/7--------------------|
D|------------------------------------------|
A|------------------------------------------|
E|------------------------------------------|

E|-3-5-5/7-5-3-5-3-5-3----------------------|
B|-4-5-5/7-5-4-5-4-5-4----------------------|
G|------------------------------------------|
D|------------------------------------------|
A|------------------------------------------|
E|------------------------------------------|
Composición de Zezé Di Camargo
6.450 vistas
    • ½ Tono
    • A
    • Bb
    • B
    • C
    • Db
    • D
    • Eb
    • E
    • F
    • F#
    • G
    • Ab
  • Agregar a la lista

    0 comentarios

    Ver todos los comentarios

    ¿Lograste tocar?

    31 Tocaron 18 Aún no

    ¡Graba un video tocando Sem Medo de Ser Feliz y envíanoslo!

    00:00 / 00:00
    Outros vídeos desta música
    Repetir Calidad Automático
    Outros vídeos desta música
    00:00 / 00:00
    Automático
    OK