Cifra Club

Si quieres llegar muy lejos

Zurdok

Cifrado: Principal (guitarra y guitarra eléctrica)
Selo Cifra Club: esta cifra foi revisada para atender aos critérios oficiais da nossa Equipe de Qualidade.
tono: Am
E|---------------------------|
 *B  QUIED S LLEGAR MUY LEJOS*


E|---7~---|
B|--------|
G|--------|


 --Esto se repite durante los primeros versos--

 Fill 1
             Am                Dm
E|---------|-------|---------|---1---|
B|---------|---1---|---------|---3---|
G|---------|---2---|---------|---2---|
D|---0-----|---2---|---------|-------|
A|-----0*--|-------|---1-0---|-------|
E|---------|-------|---------|-------|

E|--*=Co| n este punteo empieza la canción y depuese sigue sin ningún cambio--

 Cierra la boca y deja de respirar
 todas las cosas
 se pueden quedar atrás

 Si quieres llegar muy lejos

 Pierdes el tiempo
 no sabes en donde estás
 caminos vacíos
 no hay nada que encontrar

 Si quieres llegar muy lejos

 Fill 2

E|-------3------| --Se repite varias veces hasta que Chetes deja de
B|-----2---2----| de decir 'si quieres...'
G|---3-------3--|
D|--------------|
A|--------------|
E|--------------|

 --Se repite el fill 1--

 Esperas que todo
 se ponga en su lugar
 recuerda que todo
 se puede manipular

 Si quieres llegar muy lejos

 --Se repite el fill 2--

 --En el 'uuhh uuhh ahh ahh', se puede tocar esto--

E|---------------|
B|---3-2-1-------|
G|---------1-0---|
D|---------------|
A|---------------|
E|---------------|

 --Se repite el fill 1--

 Abre los ojos
 encuentra tu libertad
 recuerda que todo se puede manipular

 Si quieres llegar muy lejos

 --Aqui estos acordes se escuchan bien--

     Bm      B7
E|---2---|---2---|
B|---3---|---0---| --Aqui el cambio de B7 a Bm es rapido y Bm solo
G|---4---|---2---| se rasguea hacia abajo.
D|---4---|---1---| Termina con B7--
A|---2---|---2---|
E|---2---|---0---|
Otros videos de esta canción
    17 exhibiciones
      • ½ Tono
      • Am
      • Bbm
      • Bm
      • Cm
      • C#m
      • Dm
      • Ebm
      • Em
      • Fm
      • F#m
      • Gm
      • G#m
    • Agregar a la lista

    Afinación de cifrado

    Afinador online

      OK