Cifra Club

Land Of Competition

Bad Religion

Tab de bajo: Principal
Land of Competition
Suffer

Tabbed by Jonathan Takish


Intto and Verse

G|----------------------------2---------------------------2--------------|
D|-----------------------0--4----------------------------------4p0-------|
A|-7-7-7-7-7--5-5-5-5-5------------7-7-7-7-7-5-5-5-5-5-------------------|
E|-----------------------------------------------------------------------|


Chorus


G|------------------------------------------------------------------------------------|
D|--------------------------------------------5-7p5-----------------------------5-7-5-|
A|-3-3-3-3---------------5-5-5-5-7-7-7-7--7------------3-3-3-3-5-5-5-5-7-7-7-7--------|
E|------------3-3-3-3-----------------------------------------------------------------|


During Solo


G|-----------------------|
D|-----------------------|
A|--7-7-7-7-7-5-5-5-5-5--|
E|-----------------------|

Outtro (Be careful of the ones who have it all...)


G|-------------------------|
D|-------------------------|
A|-3-3-3-3-5-5-5-5-7-7-7-7-|
E|-------------------------|
00:00 / 00:00
Otros videos de esta canción
Repetir
Otros videos de esta canción
Composición de Brett Gurewitz / Greg Graffin
27 vistas

0 comentarios

Ver todos los comentarios

¿Lograste tocar?

0 Tocaron 0 Aún no

¡Graba un video tocando Land Of Competition y envíanoslo!

00:00 / 00:00
OK