Cifra Club

Live Again The Fall Of Man

Bad Religion

Tab de bajo: Principal
Tabbed By: Valerie L.
e-mail: *
Tuning: standard

intro/Verse
G|------------------|
D|------------------|
A|-00-55-33---------|
E|----------3-0-3---| x8

Chorus
G|--------------------------------|
D|--------------------------------|
A|--------333-0-3-------5555------|
E|-555535---------11111------3333-| x2

Verse x6
Chorus x2
Verse x2

Bridge
G|-----------------------------------------|
D|-----------------------------------------|
A|-----3--3---3---3-----3---3--------------|
E|-5-5--5---33--3---1-1---1---3-1111-3333--|

G|--------------------------------------------|    |--------|
D|--------------------------------------------|    |--------|
A|------333-0-3-------------------------------|    |--------|
E|-5535---------11111-3333333-3/10101010-1111-| x2 |-55535--| x2

Chorus x8
Composición de Brett Gurewitz / Greg Graffin
26 vistas

0 comentarios

Ver todos los comentarios

¿Lograste tocar?

0 Tocaron 0 Aún no

¡Graba un video tocando Live Again The Fall Of Man y envíanoslo!

00:00 / 00:00
Outros vídeos desta música
Repetir Calidad Automático
Outros vídeos desta música
00:00 / 00:00
Automático
OK