Cifra Club

You Give Love A Bad Name

Bon Jovi

Tablatura: Principal
reproducciones 7.469
Tono: A#
'Shot through the heart
And you're to blame
Darling, you give love a bad name


Introdução: C5  Ab5  Bb5  C5
            Ab5  Bb5  ( Eb5  C5 )
            C5  Ab5  Bb5  C5
            Ab5  Bb5

(Guitarra Solo 1)

E|-13b15r--13~--11--b15r13--11b-----------------------|
B|-------------------------------13---11-13-----------|
G|----------------------------------------------------|
D|----------------------------------------------------|
A|----------------------------------------------------|
E|----------------------------------------------------|

E|-13b15r--13~--11--b15r13p11-------------------------|
B|----------------------------13~---------------------|
G|----------------------------------------------------|
D|----------------------------------------------------|
A|----------------------------------------------------|
E|----------------------------------------------------|

E|-13b15r--13~--11--b15r13--11b-----------------------|
B|-------------------------------13---11-13-----------|
G|----------------------------------------------------|
D|----------------------------------------------------|
A|----------------------------------------------------|
E|----------------------------------------------------|

E|-13b15r--13~----------------------------------------|
B|----------------------------------------------------|
G|----------------------------------------------------|
D|----------------------------------------------------|
A|----------------------------------------------------|
E|----------------------------------------------------|

(Guitarra Solo 2)

E|----------------------------------------------------|
B|----------------------------------------------------|
G|-10b12r--10~--8--b12r10--8b-------------------------|
D|-----------------------------10---8-10--------------|
A|----------------------------------------------------|
E|----------------------------------------------------|

E|----------------------------------------------------|
B|----------------------------------------------------|
G|-10b12r--10~--8--b12r10p8---------------------------|
D|--------------------------10~-----------------------|
A|----------------------------------------------------|
E|----------------------------------------------------|

E|----------------------------------------------------|
B|----------------------------------------------------|
G|-10b12r--10~--8--b12r10--8b-------------------------|
D|-----------------------------10---8-10--------------|
A|----------------------------------------------------|
E|----------------------------------------------------|

E|----------------------------------------------------|
B|----------------------------------------------------|
G|-10b12r--10~----------------------------------------|
D|----------------------------------------------------|
A|----------------------------------------------------|
E|----------------------------------------------------|

Primeira Parte:

  P.M. . . . . . . . . . . . . 
E|----------------------------------------------------|
B|----------------------------------------------------|
G|----------------------------------------------------|
D|---------1-1-------------1-1------------------------|
A|-3---1-3-----3-1-3---1-3-----3~---------------------|
E|---3---------------3--------------------------------|

(Riff 1)

     \  /  \  /  \  /
E|----------------------------------------------------|
B|----------------------------------------------------|
G|-/8-------------------------------------------------|
D|-/8-------------------------------------------------|
A|----------------------------------------------------|
E|----------------------------------------------------|

An angel's smile 
Is what you sell
You promise me heaven
Then put me through hell

Chains of love 
Got a hold on me
When passion's a prison
You can't break free


Ponte:

   F5
E|------------------------------------------|
B|------------------------------------------|
G|--------------------------x-x-8-----x-8---|
D|-3------------------------x-x-8-----x-8---|
A|-3----------------------------------------|
E|-1----------------------------------------|
   Bb5
E|------------------------------------------|
B|------------------------3-----------------|
G|-3-------------------3--------------------|
D|-3----------------3-----------------------|
A|-1----------------------------------------|
E|------------------------------------------|
   F5               G5
E|------------------------------------------|
B|------------------------------------------|
G|----------2~---------------4~-------------|
D|-------3----------------5-----------------|
A|-3--3-------------5--5--------------------|
E|-1----------------3-----------------------|


  F5
Whoa, you're a loaded gun
  Bb5
Whoa, There's nowhere to run
 F5
No one can save me
     G5
The damage is done


Primeiro Refrão:

  C5              Ab5
Shot through the heart
     Bb5        C5
And you're to blame
 Ab5      Bb5    Eb5  C5
You give love a bad  name (bad name)

    C5     Ab5
I play my part
          Bb5      C5
And you play your game

 Ab5      Bb5    Eb5  C5
You give love a bad  name (bad name)
 Ab       Bb5
You give love a bad name


Segunda Parte:

(Riff 1)

Paint your smile 
On your lips
Blood red nails 
On your fingertips

A school boy's dream
You act so shy
Your very first kiss 
Was your first kiss goodbye


Ponte:

  F5
Whoa, you're a loaded gun
  Bb5
Whoa, there's nowhere to run
 F5
No one can save me
     G5
The damage is done


Segundo Refrão:

  C5              Ab5
Shot through the heart
     Bb5        C5
And you're to blame
 Ab5      Bb5    Eb5  C5
You give love a bad  name (bad name)

    C5     Ab5
I play my part
          Bb5      C5
And you play your game
 Ab5      Bb5    Eb5  C5
You give love a bad  name (bad name)
 Ab5      Bb5
You give love


Solo:  C5  Ab5  Bb5  C5
       Ab5  Bb5  ( Eb5  C5 )
       C5  Ab5  Bb5  C5
       Ab5  Bb5
       G53

   H.A \                /
E|----------------------------------------------------|
B|----------------------------------------------------|
G|-0----------------------/8~-------------------------|
D|----------------------------------------------------|
A|----------------------------------------------------|
E|----------------------------------------------------|

E|----------------------------------------------------|
B|----------------------------------------------------|
G|------------------------------15/17--17--17~--------|
D|-10/12--12/13--13/15--15/17-------------------------|
A|----------------------------------------------------|
E|----------------------------------------------------|
        \   /                    \    /
E|----------------------------------------------------|
B|-8h11p8h11p8h11p.../13----8h11p8h11p8h11p.../13-----|
G|----------------------------------------------------|
D|----------------------------------------------------|
A|----------------------------------------------------|
E|----------------------------------------------------|
        \   /      
E|----------------------------------------------------|
B|-8h11p8h11p8h11p.../13----8h11p8h11/13--------------|
G|----------------------------------------------------|
D|----------------------------------------------------|
A|----------------------------------------------------|
E|----------------------------------------------------|

E|-8--------10----------------------------------------|
B|-11b13~~--13b15~~-----------------------------------|
G|----------------------------------------------------|
D|----------------------------------------------------|
A|----------------------------------------------------|
E|----------------------------------------------------|

   P.M . . . . . . .   . . . . .     \
E|----------------------------------------------------|
B|----------------------------------------------------|
G|---------------------------------0------------------|
D|-----------1---------------1-3p1--------------------|
A|-3p1---1-3---3-1-3p1---1-3--------------------------|
E|-----3---------------3------------------------------|


Terceiro Refrão:

Shot through the heart
And you're to blame
You give love a bad name

I play my part
And you play your game
You give love a bad name (bad name)

  C5              Ab5
Shot through the heart
     Bb5        C5
And you're to blame
 Ab5      Bb5    Eb5  C5
You give love a bad  name (bad name)

    C5     Ab5
I play my part
          Bb5      C5
And you play your game
 Ab5      Bb5    Eb5  C5
You give love a bad  name (bad name)


 Ab5      Bb5  ( Eb5  C5 )
You give love
 Ab5      Bb5  ( Eb5  C5 )
You give love              (bad name)
 Ab5      Bb5  ( Eb5  C5 )
You give love
 Ab5      Bb5  ( Eb5  C5 )
You give love              (bad name)
 Ab5      Bb5  ( Eb5  C5 )
You give love
 Ab5      Bb5  ( Eb5  C5 )
You give love              (bad name)
 Ab5      Bb5  ( Eb5  C5 )
You give love
 Ab5      Bb5  ( Eb5  C5 )
You give love              (bad name)
Acordes para:

    0 comentarios

      mostrar más comentarios
      00:00 / 00:00
      outros vídeos desta música
      repetirqualidadeautomática
      Outro vídeos desta música
        00:00 / 00:00
        automática
        Capítulos
        • Tocando a Música
        • Dicas Iniciais / Equipamentos
        • Configurações do Amplificador
        • Acordes da Base da Introdução
        • Tocando a Introdução
        • Ensinando a Introdução
        • Introdução - Guitarra Solo 1
        • Introdução - Guitarra Solo 2
        • Tocando a Primeira Parte
        • Ensinando a Primeira Parte - Estrofes
        • Ensinando o Riff 1
        • Acordes da Ponte
        • Tocando a Ponte
        • Ensinando a Ponte - Parte 1 de 2
        • Ensinando a Ponte - Parte 2 de 2
        • Dicas para as repetições e Solo
        • Tocando o Solo
        • Ensinando o Solo - Parte 1 de 3
        • Ensinando o Solo - Parte 2 de 3
        • Ensinando o Solo - Parte 3 de 3
        • Encerramento
        • Ficha Técnica
        OK