Cifra Club

Aprenda

Starman

David Bowie

Tablatura: Principal (guitarra)
tono: F
[Intro] Bb  F

[Primeira Parte]

Bb              F
   Hey la la la   hey la la la

Gm                                                       F
   Didn't know what time it was, the lights were low_ow_ow
                            C
I leaned back on my radio_o_o
                            C7                         
Some cat was layin'down some  rock'n'roll'lotta soul
    F   Ab  Bb9
He said
Gm                                      F
   Then the loud sound did seem to fa_a_ade
                                             C
Came back like slow voice on a wave of pha_a_ase
                             C7              A  G  
That weren't no dj that was hazy cosmic jive      

[Refrão]

            F      Dm
There's a starman waiting in the sky
      Am               C
He'd like to come and meet us
                             C7
But he thinks he'd blow our minds
            F      Dm
There's a starman waiting in the sky
      Am              C
He's told us not to blow it
                                C7
'Cause he knows it's all worthwhile

He told me

Bb           Bbm
   Let the children lose it
F           Dm7
  Let the children use it
Gm          C
  Let the children boogle

[Solo] Bb  F  C  F
       Bb  F  C  

E|------------------------------------------|
B|-3b-3b---------------/5-5-3---------------|
G|-------5-3-2~--2-3-5--------5-2-----------|
D|------------------------------------------|
A|------------------------------------------|
E|------------------------------------------|

E|------------------------------------------|
B|-------3-3---------------/5-5\3-----------|
G|-2-3-5-----5-3-2--2-3-5---------5---------|
D|------------------------------------------|
A|------------------------------------------|
E|------------------------------------------|

[Segunda Parte]

Gm                                              F
   I had to phone someone so I picked on you_ou_ou
                                           C
Hey, that's far out so you heard him too_o_o
                         C7                      F  Ab  Bb9
Switch on the tv we may pick him up on channel two
Gm                                               F
   Look out your window I can see the light_ight_ight
                                           C
If we can sparkle he may land tonight_ight_ight
                               C7                        A  G
Don't tell your papa or he'll get us locked up in fright

[Refrão]

            F      Dm
There's a starman waiting in the sky
      Am               C
He'd like to come and meet us
                             C7
But he thinks he'd blow our minds
            F      Dm
There's a starman waiting in the sky
      Am              C
He's told us not to blow it
                                C7
'Cause he knows it's all worthwhile

He told me

Bb           Bbm
   Let the children lose it
F           Dm7
  Let the children use it
Gm          C
  Let the children boogle

    F      Dm
A starman waiting in the sky
      Am               C
He'd like to come and meet us
                             C7
But he thinks he'd blow our minds
            F      Dm
There's a starman waiting in the sky
      Am              C
He's told us not to blow it
                                C7
'Cause he knows it's all worthwhile

He told me

Bb           Bbm
   Let the children lose it
F           Dm7
  Let the children use it
Gm          C
  Let the children boogle

[Solo] Bb  F  C  F
       Bb  F  C  

E|------------------------------------------|
B|-3b-3b---------------/5-5-3---------------|
G|-------5-3-2~--2-3-5--------5-2-----------|
D|------------------------------------------|
A|------------------------------------------|
E|------------------------------------------|

E|------------------------------------------|
B|-------3-3---------------/5-5-3-----------|
G|-2-3-5-----5-3-2--2-3-5---------5-2-------| (8x)
D|------------------------------------------|
A|------------------------------------------|
E|------------------------------------------|

          Bb
La la la la 
          F
La la la la 
          C
La la la la 
          F
La la la la 

          Bb
La la la la 
          F
La la la la 
          C
La la la la 
          F
La la la la 

          Bb
La la la la 
          F
La la la la 
          C
La la la la 
          F
La la la la 

          Bb
La la la la 
          F
La la la la 
          C
La la la la 
          F
La la la la
Composição de David Bowie
Colaboración y revision:
17.708 reproducciones
    • ½ Tono
    • A
    • Bb
    • B
    • C
    • Db
    • D
    • Eb
    • E
    • F
    • F#
    • G
    • Ab
  • Adicionar à lista

    0 comentarios

    Ver todos os comentários

    ¿Conseguiste tocar?

    50 Tocaram 8 Ainda não

    Grave um vídeo tocando Starman e nos envie!

    00:00 / 00:00
    outros vídeos desta música
    repetir qualidade Automático
    Outros vídeos desta música
    00:00 / 00:00
    Automático
    OK