Cifra Club

Sweet Child O' Mine

Guns N' Roses

Tab de bajo: Versão 2
reproducciones 256
(intro)

G|------------------3---------------------------------------|
D|------3----3-4--6---6--4--3-------------4---------2--1----|
A|----4-------------------------4-----2-----------2------2--|
E|----------------------------------------------------------|

G|----------------------------------------------------------|
D|----2----1------------------4------------4--3---4----3----|
A|-----------2-------4----4------------4--------4---------4-|
E|----------------2-----------------------------------------|

0 comentarios

mostrar más comentarios
00:00 / 00:00
outros vídeos desta música
repetir qualidade Automático
Outros vídeos desta música
00:00 / 00:00
Automático
OK