Cifra Club

Amor Por Retribuição

Kid Abelha

Tablatura: Principal (guitarra)
Tom: D
Leoni / George Israel

Intro: D  A  G  Bm7  A  G
 
Solo:
E-----------------------------------------------------7-9-10-------------5--5--5--5--3-
B---7-7-7-5---5-------5-5---7-5---5-7-5-8-10-8-7-8-10--------8-8---8-7-5-7--7--5--5--3-
G-7---------7---7---4-----------7----------------------------------------7--7--6--6--4-
D-----------------7--------------------------------------------------------------------
A--------------------------------------------------------------------------------------
E--------------------------------------------------------------------------------------

E--------------------------------------5-5-3-2-3-2-----2---------
B-7-5---5------------------------------------------3-5---3-------
G-----7---7-2-4-4-2---2------------------------------------------
D-------------------5---4-2-4-2---2------------------------------
A-------------------------------5---5----------------------------
E----------------------------------------------------------------

D             A
Ovos quentes e café na cama
F#7                 Bm
As suas lágrimas no meu pijama
C                  Am
Você não pode me cobrar
         G            A
Pelo que deu de graça
D                     A
Sempre inventando mais provas
     de amor
F#7                    Bm
E só me abraça pra sentir o efeito
C                     Am
Acho que a sua inspiração
         G
Está em livros de Direito

REFRÃO:
   C         G
Talvez eu tenha ganho
  C            G
Mais que eu tenha dado
      C        G
Mas contas de amor
C           G
Sempre dão errado
D                         C6
Você me lembra histórias do passado
A4                         D
E tudo mais pra eu me sentir culpado
C6        G
Amor por retribuição
C    D                Em
Você só pode estar de brincadeira
F                   Em7
Pingüins em cima de geladeiras
       D
Valem tanto quanto um beijo por
     compaixão
C6        G
Amor por retribuição
C    D                Em
Você só pode estar de brincadeira

F                   Em7
Pingüins em cima de geladeiras
      D
Valem tanto quanto um beijo por
     compaixão

D             A
Ovos quentes e café na cama
F#7                Bm
Eu sei de tudo que você trama
C                     Am
Os mesmos truques de manhã
         G            A
Você já não me engana
D                   A
Não se importa estar apaixonado
F#7                 Bm
Só pensa em datas e compromissos
C                    Am
Seus beijos uma vez por mês
          G
Não quero nada disso
reproducciones 18
Acordes para:
    Composição: George Israel / Leoni

    0 comentarios

    mostrar más comentarios

    ¿Conseguiste tocar?

    0 tocaron 0 aún no

    ¡Graba un vídeo tocando Amor Por Retribuição y envianoslo!

    00:00 / 00:00
    outros vídeos desta música
    repetir qualidade Automático
    Outros vídeos desta música
    00:00 / 00:00
    Automático
    OK