Cifra Club

Aprenda

Fans

Kings Of Leon

Tablatura: Versão 3 (guitarra)
Tom: E
hi.
easy song for a beginner. sounds nice though.


main riff on acoustic:
   E          A            B
e------------------------------------------------------------|
B-------------2------------4---------------------------------|
G--1----------2------------4---------------------------------|
D--2----------2------------4---------------------------------|
A--2---------------------------------------------------------|
E------------------------------------------------------------|
   ...these chords are strum several times each, let them ring. 
just listen to the song to get the timings.

electric parts

e------------------------|
B------------------------|
G------------------------|
D------------------------|
A------------------------|
E---0--------------------|

this is played with heavy distortion a few times at the beginning of the song.

later this is played:

e-----4------------------|
B-----4------------------|
G------------------------|
D------------------------|
A------------------------|
E------------------------|


SOLO:
e----/4--4--5--5--4---4--4--5--5--4---4-4---5--5--4---5b7--5--4---|
B----/4--4--4--4------4--4--4--4------4-4---4--4-------4---4--4---|
G-----------------------------------------------------------------|
D-----------------------------------------------------------------|
A-----------------------------------------------------------------|
E-----------------------------------------------------------------|


e---0--0--0--0--0---0--0--0--0--0---0--0--0--0--0---0--0--0--0--0-|
B---0--0--2--2--0---0--0--2--2--0---0--0--2--2--0---0--0--2--2--0-|
G-----------------------------------------------------------------|
D-----------------------------------------------------------------|
A-----------------------------------------------------------------|
E-----------------------------------------------------------------|


e----/4--4--5--5--4---4--4--5--5--4---4-4---5--5--4---5b7--5--4---|
B----/4--4--4--4------4--4--4--4------4-4---4--4-------4---4--4---|
G-----------------------------------------------------------------|
D-----------------------------------------------------------------|
A-----------------------------------------------------------------|
E-----------------------------------------------------------------|

e---4--4--4--4--4---4--4--4--4--4---4--4--4--4--4---4--4--4--4--4-|
B---0--0--2--2--0---0--0--2--2--0---0--0--2--2--0---0--0--2--2--0-|
G-----------------------------------------------------------------|
D-----------------------------------------------------------------|
A-----------------------------------------------------------------|
E-----------------------------------------------------------------|


there you go. good song for a beginner i reckon.








Compositor Caleb Followill / Jared Followill / Matthew Followill / Nathan Followill
3 reproducciones
    • ½ Tom
    • A
    • Bb
    • B
    • C
    • Db
    • D
    • Eb
    • E
    • F
    • F#
    • G
    • Ab
  • Adicionar à lista

    0 comentarios

    Mostrar mais comentários

    ¿Conseguiste tocar?

    0 Tocaron 0 Ainda não

    Grave um vídeo tocando Fans e mande pra gente!

    00:00 / 00:00
    outros vídeos desta música
    repetir qualidade Automático
    Outros vídeos desta música
    00:00 / 00:00
    Automático
    OK