Cifra Club

Head To Toe

Kings Of Leon

Tab de bajo: Principal
KOL
Head to Toe

Oh he's such a sucker from her head to her toes, Oh he's such a sucker from her head to her toes...
G------------------|
D------------  x16-|
A-7-77-12-10-------|
E------------------|

He's reaching and a kissin her mouth...
G----------|
D----------|
A----------|
E-99997777

G---------------|
D---------------|  x4
A-7-77-12-10----|
E---------------|

G-7h9-7h9-7h99----|
D-----------------|  x4
A-----------------|
E-----------------|

G---------------|
D---------------|  x8
A-7-77-12-10----|
E---------------|

G----------|
D----------|
A----------|
E-99997777

G---------------|
D---------------|  x4
A-7-77-12-10----|
E---------------|

G----------|
D----------|
A----------|
E-99997777

G---------------|
D---------------|  x4
A-7-77-12-10----|
E---------------|

G--------------------------------------------------------------------------|
D--------------------------------------------------------------------------|
A-5-5-5-5-5-5-5-5-5-5-5-5-3-3-3-3-3-3-3-3-5-5-5-5-5-5-5-5-5-5-5-5----------|
E---------------------------------------------------------------------99-5-|

G------------------|
D------------  x16-|
A-7-77-12-10-------|
E------------------|

G-7h9-7h9-7h99----|
D-----------------|  x4
A-----------------|
E-----------------|



Urine.
Compositor não encontrado.
22 vistas

0 comentarios

Ver todos los comentarios

¿Lograste tocar?

0 Tocaron 0 Aún no

¡Graba un video tocando Head To Toe y envíanoslo!

00:00 / 00:00
Outros vídeos desta música
Repetir Calidad Automático
Outros vídeos desta música
00:00 / 00:00
Automático
OK