Cifra Club

Aprenda

Taper Jean Girl

Kings Of Leon

Tablatura: Principal (guitarra)
Tom: A
Guitarra 1
Intro/Versos(Verses):
E|-------------------------------------
B|-------------------------------------
G|-------------------------------------
D|-------------------------------------
A|-7--7--9--9--9/11--11--11-11---------
E|-0--0--0--0--0-----0---0--0---------- (x2)

E|-------------------------------------
B|-------------------------------------
G|-------------------------------------
D|-11-11-9--9--11-11-11-11-------------
A|-0--0--0--0--0--0--0--0--------------
E|------------------------------------- (x2)

Refrão(Chorus):
E|-------------------------------------
B|-------------------------------------
G|-------------------------------------
D|-------------------------------------
A|-7--7--7--7--5-----------------------
E|-0--0--0--0--0----------------------- (x4)
              (Deixe soar)

Solo: 
E|-12--9-----------12--9---------------
B|--------9--7------------9--7---------
G|--------------9---------------9------
D|-------------------------------------
A|-------------------------------------
E|-------------------------------------

E|-12--9-----------12--9---------------
B|--------9--7------------9--7---------
G|-----------------------------9------
D|-------------------------------------
A|-------------------------------------
E|------------------------------------- (x4)

Final:
E|-------------------------------------
B|-------------------------------------
G|-------------------------------------
D|-------------------------------------
A|-7--7--7--7--7--5--5--5--5--5--------
E|-0--0--0--0--0--0--0--0--0--0-------- (x4)

Guitarra 2
Intro/Versos/Base do Solo:
E|-------------------------------------
B|-------------------------------------
G|-13--13--x--x--13---13--x-x-x--13----
D|-14--14--x--x--14---14--x-x-x--14----
A|-14--14--x--x--14---14--x-x-x--14----
E|-12--12--x--x--12---12--x-x-x--12----



Refrão(Chorus):
E|-------------------------------------
B|-------------------------------------
G|-------------------------------------
D|-------------------------------------
A|-7--7--7--7--5-----------------------
E|-0--0--0--0--0----------------------- (x4)
              (Deixe soar)
Compositor Caleb Followill / Jared Followill / Matthew Followill / Nathan Followill
Colaboración y revision:
  • André Gonçalves
192 reproducciones
    • ½ Tom
    • A
    • Bb
    • B
    • C
    • Db
    • D
    • Eb
    • E
    • F
    • F#
    • G
    • Ab
  • Adicionar à lista

    0 comentarios

    Mostrar mais comentários

    ¿Conseguiste tocar?

    0 Tocaron 0 Ainda não

    Grave um vídeo tocando Taper Jean Girl e mande pra gente!

    00:00 / 00:00
    outros vídeos desta música
    repetir qualidade Automático
    Outros vídeos desta música
    00:00 / 00:00
    Automático
    OK