Cifra Club

Detroit Rock City Solo

KISS

Chords: Principal (acoustic and electric guitars)
tone: D
E|-------------------------------------------------|
B|-------------------------------------------------|
G|--------7-5--------------------------------------|
D|---5-8-------------------------------------------|
A|-------------------------------------------------|
E|-------------------------------------------------|

E|-------------------------------------------------|
B|-------------------------------------------------|
G|-----8--7--5---------8--7--5---------------------|
D|------------------------------8------------------|
A|-------------------------------------------------|
E|-------------------------------------------------|

E|-------------------------------------------------|
B|-------------------------------------------------|
G|------7-8-7--------------------------------------|
D|---8---------8--6--5--6--------------------------|
A|-------------------------------------------------|
E|-------------------------------------------------|

E|-------------------------------------------------|
B|-------------------------------------------------|
G|---5---------5-----------------------------------|
D|------8-6-------8--6---------5-------------------|
A|-------------------------------------------------|
E|-------------------------------------------------|

2º parte :
E|-------------------------------------------------|
B|-------------------------------------------------|
G|--------7-5--------------------------------------|
D|---5-8-------------------------------------------|
A|-------------------------------------------------|
E|-------------------------------------------------|

E|-------------------------------------------------|
B|-------------------------------------------------|
G|-----8--7--5---------8--7--5---------------------|
D|------------------------------8------------------|
A|-------------------------------------------------|
E|-------------------------------------------------|

E|-------------------------------------------------|
B|-------------------------------------------------|
G|------7-8-7--------------------7--5--------------|
D|---8---------8--6--5--6--5-----------------------|
A|-------------------------------------------------|
E|-------------------------------------------------|

E|-------------------------------------------------|
B|-------------------------------------------------|
G|-------5-5-5-5-5-5--------7--8-------------------|
D|-------------------------------------------------|
A|-------------------------------------------------|
E|-------------------------------------------------|

E|-------------------------------------------------|
B|-------------------------------------------------|
G|--------7-5--------------------------------------|
D|---5-8-------------------------------------------|
A|-------------------------------------------------|
E|-------------------------------------------------|

E|-------------------------------------------------|
B|-------------------------------------------------|
G|-----8--7--5---------8--7--5---------------------|
D|------------------------------8------------------|
A|-------------------------------------------------|
E|-------------------------------------------------|

E|-------------------------------------------------|
B|-------------------------------------------------|
G|------7-8-7--------------------------------------|
D|---8---------8--6--5--6--------------------------|
A|-------------------------------------------------|
E|-------------------------------------------------|

E|-------------------------------------------------|
B|-------------------------------------------------|
G|---5---------5-----------------------------------|
D|------8-6-------8--6---------5-------------------|
A|-------------------------------------------------|
E|-------------------------------------------------|

E|-------------------------------------------------|
B|-------------------------------------------------|
G|--------7-5--------------------------------------|
D|---5-8-------------------------------------------|
A|-------------------------------------------------|
E|-------------------------------------------------|

E|-------------------------------------------------|
B|-------------------------------------------------|
G|-----8--7--5---------8--7--5---------------------|
D|------------------------------8------------------|
A|-------------------------------------------------|
E|-------------------------------------------------|

E|-------------------------------------------------|
B|-------------------------------------------------|
G|------7-8-7--------------------------------------|
D|---8---------8--6--5--6--------------------------|
A|-------------------------------------------------|
E|-------------------------------------------------|

00:00 / 00:00
Other videos of this song
Repeat
Other videos of this song
Composed by Bob Ezrin / Paul Stanley
Collaboration and Review:
  • victor rocha
1.639 views
    • ½ Tone
    • A
    • Bb
    • B
    • C
    • Db
    • D
    • Eb
    • E
    • F
    • F#
    • G
    • Ab
  • Add to list
    00:00 / 00:00
    OK