Cifra Club

Ashes Of The Wake

Lamb of God

Cifrado: Principal (guitarra y guitarra eléctrica)
tono: E
E||----------------------------------------|-----------------------------------------| 
B||----------------------------------------|-----------------------------------------| 
G||----------------------------------------|-----------------------------------------| 
D||----------------------------------------|---------------------------------8----8--| 
A||------------4--5--7--8--7--5------------|---------------------------------6----6--| 
D||--0-0-0--0--------------------0--0-0-0--|--13--10--9--12--8--7--0--0-0-0----------|
                                                                                          
----------------------------------------|-----------------------------------------------| 
----------------------------------------|-----------------------------------------------| 
----------------------------------------|-----------------------10--9-------------------| 
----------------------------------------|------------------------------11--11-12-11--8--| 
------------4--5--7--8--7--5------------|-----------------------------------------------| 
--0-0-0--0--------------------0--0-0-0--|--13--10--9--12--8--7--------------------------| 
                                                                                    
----------------------------------------|-----------------------------------------| 
----------------------------------------|-----------------------------------------| 
----------------------------------------|-----------------------------------------| 
----------------------------------------|---------------------------------8----8--| 
------------4--5--7--8--7--5------------|---------------------------------6----6--| 
--0-0-0--0--------------------0--0-0-0--|--13--10--9--12--8--7--0--0-0-0----------| 
                                                              
----------------------------------------|--------------------------------------| 
----------------------------------------|--------------------------------------| 
----------------------------------------|--------------------------------------| 
----------------------------------------|--------------------------------------| 
------------4--5--7--8--7--5------------|------------------------------1----1--| 
--0-0-0--0--------------------0--0-0-0--|--8--5--4--7--4--3--0--0-0-0--1----1--| 
                                                                            
----------------------------------------|-----------------------------------------------| 
----------------------------------------|-----------------------------------------------| 
----------------------------------------|-----------------------10--9-------------------| 
----------------------------------------|------------------------------11--11-12-11--8--| 
------------4--5--7--8--7--5------------|-----------------------------------------------| 
--0-0-0--0--------------------0--0-0-0--|--13--10--9--12--8--7--------------------------| 
                                                              
----------------------------------------|-----------------------------------------| 
----------------------------------------|-----------------------------------------| 
----------------------------------------|-----------------------------------------| 
----------------------------------------|---------------------------------8----8--| 
------------4--5--7--8--7--5------------|---------------------------------6----6--| 
--0-0-0--0--------------------0--0-0-0--|--13--10--9--12--8--7--0--0-0-0----------| 
                                                                 
----------------------------------------|----------------------------------------------| 
----------------------------------------|----------------------------------------------| 
----------------------------------------|--10--9---------------------------------------| 
----------------------------------------|---------11--11-12-11--8----------------------| 
------------4--5--7--8--7--5------------|--------------------------10--9--6------------| 
--0-0-0--0--------------------0--0-0-0--|------------------------------------4-5-4--1--| 
                                                                             
----------------------------------------|---------------------------------------| 
----------------------------------------|---------------------------------------| 
----------------------------------------|---------------------------------------| 
----------------------------------------|---------------------------------------| 
--5-6-5---------------------------------|------------------------------8--7--4--| 
---------0--0--0--0--0--0-0-0--0--0--0--|--0--0-0-0--0--0--0--0--8--7-----------| 
                                                                    
----------------------------------------|----------------------------------| 
----------------------------------------|----------------------------------| 
----------------------------------------|----------------------------------| 
----------------------------------------|----------------------------------| 
--5-6-5---------------------------------|-----6----6----------3----3-------| 
---------0--0--0--0--0--0-0-0--0--0--0--|--0--6----6----0--0--3----3----0--| 
                                                                                  
----------------------------------------|---------------------------------------| 
----------------------------------------|---------------------------------------| 
----------------------------------------|---------------------------------------| 
----------------------------------------|---------------------------------------| 
--5-6-5---------------------------------|------------------------------8--7--4--| 
---------0--0--0--0--0--0-0-0--0--0--0--|--0--0-0-0--0--0--0--0--8--7-----------| 
                                                                  
----------------------------------------|----------------------------------| 
----------------------------------------|----------------------------------| 
----------------------------------------|----------------------------------| 
----------------------------------------|----------------------------------| 
--5-6-5---------------------------------|-----3----3----------4----4-------| 
---------0--0--0--0--0--0-0-0--0--0--0--|--0--3----3----0--0--4----4----0--| 
                                                                          
----------------------------------------|---------------------------------------| 
----------------------------------------|---------------------------------------| 
----------------------------------------|---------------------------------------| 
----------------------------------------|---------------------------------------| 
--5-6-5---------------------------------|------------------------------8--7--4--| 
---------0--0--0--0--0--0-0-0--0--0--0--|--0--0-0-0--0--0--0--0--8--7-----------| 
                                                                   
----------------------------------------|----------------------------------| 
----------------------------------------|----------------------------------| 
----------------------------------------|----------------------------------| 
----------------------------------------|----------------------------------| 
--5-6-5---------------------------------|-----6----6----------3----3-------| 
---------0--0--0--0--0--0-0-0--0--0--0--|--0--6----6----0--0--3----3----0--| 
                                                                           
----------------------------------------|---------------------------------------| 
----------------------------------------|---------------------------------------| 
----------------------------------------|---------------------------------------| 
----------------------------------------|---------------------------------------| 
--5-6-5---------------------------------|------------------------------8--7--4--| 
---------0--0--0--0--0--0-0-0--0--0--0--|--0--0-0-0--0--0--0--0--8--7-----------| 
                                                                     
----------------------------------------|----------------------------------| 
----------------------------------------|----------------------------------| 
----------------------------------------|----------------------------------| 
----------------------------------------|----------------------------------| 
--5-6-5---------------------------------|-----3----3----------4----4-------| 
---------0--0--0--0--0--0-0-0--0--0--0--|--0--3----3----0--0--4----4----0--| 
                                            
-----------------------------------------|------|| 
-----------------------------------------|------|| 
-----------------------------------------|------|| 
-----------------------------------------|------|| 
-------------------------------3----5----|------|| 
--7-7-7-7-6-6-6-6-3-3-3-3-6----3----5----|------|| 

                                                1,3     2        4 
||---------------------------------------------|-------|--------|------|| 
||-------------------------------2-2--3-3--3-3-|--3-3--|--------|------|| 
||*------------------------------6-6--7-7--7-7-|--7-7-*|-------*|------|| 
||*--------------------------------------------|------*|-------*|------|| 
||--------------------------1-1--5-5--6-6--6-6-|--3-3--|----1-1-|--8-8-|| 
||-0-0000000-0000000-000000-1-1--5-5--6-6--6-6-|--3-3--|--0-1-1-|--8-8-|| 

                                                                                   4x 
||---------------------------------------------------------------------------------|| 
||---------------------------------------------------------------------------------|| 
||*-------------------------------------------------------------------------------*|| 
||*--------------------------------------------------------------------------3----*|| 
||---------------------------------------------------------------------------1-2-5-|| 
||-222-2-22-/7-/15^-15^--222-2-22-/8-/15^-15^--333-3-33-/9-/17^-17^--111-1-1---2-5-|| 

||-------------------------------------------------------------- 
||-------------------------------------------------------------- 
||-------------------------------------------------------------- 
||-------------------------------------------------------------- 
||-----1h2---1h2-5-7-8-7-5-4-----1h2---1h2--5-4-6-----1h2---1h2- 
||-000-1h2-0-1h2-------------000-1h2-0-1h2--------000-1h2-0-1h2- 

-------------------------------|| 
-------------------------------|| 
-------------------------------|| 
-------------------------------|| 
--5-7-8-7-5-4-----1h2---1h2---|| 
--------------000-1h2-0-1h2---|| 

||-------------------------------------------------------------- 
||-------------------------------------------------------------- 
||*------------------------------------------------------------- 
||*------------------------------------------------------------- 
||-----1h2---1h2-5-7-8-7-5-4-----1h2---1h2--5-4-6-----1h2---1h2- 
||-000-1h2-0-1h2-------------000-1h2-0-1h2--------000-1h2-0-1h2- 

               1                          2 
--------------|--------------------------|------------------------| 
--------------|--------------------------|------------------------| 
--------------|-------------------------*|-----------------------*| 
--------------|-------------------------*|-----------------------*| 
--5-7-8-7-5-4-|----1h2---1h2-----1h2---3-|----1h2---7-----1h2---3-| 
--------------|000-1h2-0-1h2-000-1h2-0-3-|000-1h2-0-7-000-1h2-0-3-| 
  
3 
--------------------------|| 
--------------------------|| 
-------------------------*|| 
-------------------------*|| 
-----1h2---5-----1h2---3--|| 
-000-1h2-0-5-000-1h2-0-3--|| 

||---------------------------------------------------------------------------------|| 
||---------------------------------------------------------------------------------|| 
||*-------------------------------------------------------------------------------*|| 
||*--------------------------------------------------------------------------3----*|| 
||---------------------------------------------------------------------------1-2-5-|| 
||-222-2-22-/7-/15^-15^--222-2-22-/8-/15^-15^--333-3-33-/9-/17^-17^--111-1-1---2-5-|| 

||-------------------------------------------------------------- 
||-------------------------------------------------------------- 
||*------------------------------------------------------------- 
||*------------------------------------------------------------- 
||-----1h2---1h2-5-7-8-7-5-4-----1h2---1h2--5-4-6-----1h2---1h2- 
||-000-1h2-0-1h2-------------000-1h2-0-1h2--------000-1h2-0-1h2- 

               1,4                        2 
--------------|--------------------------|------------------------| 
--------------|--------------------------|------------------------| 
--------------|-------------------------*|-----------------------*| 
--------------|-------------------------*|-----------------------*| 
--5-7-8-7-5-4-|----1h2---1h2-----1h2---3-|----1h2---7-----1h2---3-| 
--------------|000-1h2-0-1h2-000-1h2-0-3-|000-1h2-0-7-000-1h2-0-3-| 
  
 3 
--------------------------|-----------------|| 
--------------------------|-----------------|| 
-------------------------*|-----------------|| 
-------------------------*|-----------------|| 
-----1h2---5-----1h2---3--|-6-3-5-/7-6-3-0--|| 
-000-1h2-0-5-000-1h2-0-3--|-6-3-5-/7-6-3-0--|| 

E||-------------------|------------------|--------------------------------------| 
B||-------------------|------------------|--------12--11------------------------| 
G||-------------------|------------------|*-------------------------------------| 
D||--0----------------|------------------|*---------------13--12h13p12----------| 
A||--0----------------|------------------|--------------------------------------| 
D||--0----------------|------------------|--------------------------------------| 

|--------------------------------------------------------|------| 
|----------------------12-11-----------------------------|------| 
|--------------------------------------------------------|-----*| 
|----------------------------13-12h13p-------------------|-----*| 
|-------------------------------------------17-----------|------| 
|--13-12-13-12-10-0---------------------12-----13-12-10r-|-0----| 

----------------------------------------------|--------------------------------------------| 
-----------12--11-----------------------------|--------------------------------------------| 
*---------------------------------------------|--------------------------------------------| 
*------------------13--12-13-12---------------|--------------------------------------------| 
----------------------------------------------|------------------------------17------------| 
-0--0-0-0------------------------0--0--0-0-0--|-0--0--0--0--0-0-0--0--12-13-----13--12--10-| 

                                               1.                                   
----------------------------------------------|-------------------------------------------| 
-----------12--11-----------------------------|-------------------------------------------| 
----------------------------------------------|------------------------------------------*| 
-------------------13--12-13-12---------------|------------------------------------------*| 
----------------------------------------------|-------------------------17----------------| 
-0--0-0-0------------------------0--0--0-0-0--|--0--0--0--0--0-0-0--12------13--12--10r---| 

2.                            
------------------------------||----------------| 
------------------------------||----------------| 
-----------------------------*||----------------| 
---------------8--8------5-5-*||----------------| 
------------0--6--6---0--3-3--||----------1-0---| 
-0--0--0-0--0---------0-------||--0-00-0------3-| 

                                             4x 
||-------------------------------------------|| 
||-----------3-------------------------------|| 
||*------6----------------------------------*|| 
||*-----------------------------------------*|| 
||-0------------6--3-3---0-1-1---------1-0---|| 
||-0------------6--3-3---0-1-1--0-00-0-----3-|| 

----------------------------------------------|--------------------------------------------| 
-----------12--11-----------------------------|--------------------------------------------| 
*---------------------------------------------|--------------------------------------------| 
*------------------13--12-13-12---------------|--------------------------------------------| 
----------------------------------------------|------------------------------17------------| 
-0--0-0-0------------------------0--0--0-0-0--|-0--0--0--0--0-0-0--0--12-13-----13--12--10-| 

                                               1.                                    

----------------------------------------------|-------------------------------------------| 
-----------12--11-----------------------------|-------------------------------------------| 
----------------------------------------------|------------------------------------------*| 
-------------------13--12-13-12---------------|------------------------------------------*| 
----------------------------------------------|-------------------------17----------------| 
-0--0-0-0------------------------0--0--0-0-0--|--0--0--0--0--0-0-0--12------13--12--10r---| 

2.                            
------------------------------||----------------| 
------------------------------||----------------| 
-----------------------------*||----------------| 
---------------8--8------5-5-*||----------------| 
------------0--6--6---0--3-3--||----------1-0---| 
-0--0--0-0--0---------0-------||--0-00-0------3-| 

                                             4x 
||-------------------------------------------|| 
||-----------3-------------------------------|| 
||*------6----------------------------------*|| 
||*-----------------------------------------*|| 
||-0------------6--3-3---0-1-1---------1-0---|| 
||-0------------6--3-3---0-1-1--0-00-0-----3-|| 

                        3x 
||----------------------||----------------------------------------------| 
||----------------------||----------------------------------------------| 
||*--------------------*||-10-9-----------------------------------------| 
||*--------------------*||------11-11h12p11-8---------------------------|
||---1-1---------1-0----||---------------------10-9-6----------0-----0--| 
||-0-1-1--0-00-0-----3--||-----------------------------4h5p4-1-0-----0--|

-==Solos==-
Primeiro Solo: Ashes of the Wake [Instrumental]                                                  

                                                    |--|
      H.             E   S  S     H          E   E  S  E   E
E||---------------------------|-----------------------11------|
B||--12pb------------L--12-13-|--12~--------12--13--L-----13--|
G||---------------------------|-------------------------------|
D||---------------------------|-------------------------------|
A||---------------------------|-------------------------------|
D||---------------------------|-------------------------------|

   S  S  S  S  S  S  S  S S  S S  S  S S  S S
--11------------------------------------------|
-----13-12-13-12-10-12-10-8----8----10-8----8-|
----------------------------11---11------11---|
----------------------------------------------|
----------------------------------------------|
----------------------------------------------|

  S  S S S  S S S S  S Q     E.      S  S  Q       S  S  Q       S  S  E
---------------------------------|-------------------------------------------|
---------------------------------|-------------------------------------------|
--9---------------9-12-9~----L---|-----12-14br-------12-14br-------12-14br---|
----10-9-7----7-9----------------|--14------------14------------14-----------|
-----------10--------------------|-------------------------------------------|
---------------------------------|-------------------------------------------|

  E   S  S  E     S  S  Q.        S  S
---------------------------------12-10-|
---------------------------------------|
--L-----12-14br-----12-14b~------------|
-----14----------14--------------------|
---------------------------------------|
---------------------------------------|

                 |---3--|
   S  Q      S S S   S  S S S S S S S S
----------------------------------------|
--12-10br----8---8h-10p-8---8-----------|
---------------9----------9---9-7---7---|
----------------------------------9---9-|
----------------------------------------|
----------------------------------------|

  S  S S S  S S S E  Q     S  T   T  T   T
------------------------------------12h-15-|
-----------------------------12h-13--------|
--9------------------9~----L---------------|
----10-9-7----7----------------------------|
-----------10---0-L------------------------|
-------------------------------------------|

                        |---3---|
   S   S   S  S  S  S   S   S   S  T   T  T   T   S  S  S  T   T  S   S
--17p-15p-12----12----------------12h-15-17p-15p-12----12---------------|
-------------17----17p-15p-12h-17-------------------17----17p-15-12h-13-|
------------------------------------------------------------------------|
------------------------------------------------------------------------|
------------------------------------------------------------------------|
------------------------------------------------------------------------|

                        |---3--|
   S   T   T  S  T  T   S   S  S   S  S   Q.      E
------------------------------------------------------|
--12h-13p-11----13------------------------------------|
-------------12----12p-11h-12-11h-14-12h-12~------7\--|
------------------------------------------------------|
------------------------------------------------------|
------------------------------------------------------|

   S  S  S S  S  S  S  S  S S S S  S S S  S
--12p-7----7--------------------------------|
--------12---12p-7-12p-7--------------------|
-------------------------11-8-8-8-----------|
----------------------------------12-7-7-12-|
--------------------------------------------|
--------------------------------------------|

  S   S S  S S  S   T  T   T T   S  S   S  S   S  S   E
----------------------------------------------------------||
----------------------------------------------------------||
--9h-10-9----9---------------9h-11-12p-11p-9h-11p-9h-11~--||
----------12---12p-10p-9h-13------------------------------||
----------------------------------------------------------||
----------------------------------------------------------||

Segundo Solo [Skolnick] Ashes of the Wake [Instrumental]
                                             \1/                     \1/
      W                    H        Q.       E     H.           E    E
E||---------------------|-----------------------|-----------------------|
B||---L-----------------|------------------5--|--L------------L-------|
G||--12b----------------|-----------L-----------|-----------------------|
D||---------------------|-----------------------|-----------------------|
A||---------------------|-----------------------|------------------7--|
D||---------------------|-----------------------|-----------------------|

  W                     W                         H         E    E    E    E
-------------------|-------------------------|-------------------------------|
-------------------|-------------------------|-------------------------------|
-------------------|-------------------------|-------------------------------|
-------------------|-------------------------|-------------------------------|
--L----------------|-------------------------|-----------------------3-----|
-------------------|--5pbr~----------------|--5~--------L--3--5------|

    H.           E  S  S       H.           S S S S    H         H
--------------------------|-------------------------|------------------------|
--------------------------|-------------------------|------------------------|
--------------------------|-------------------------|------------------------|
--4------------L--------|---------------------3-5-|--7~--------6~----------|
--------------------3p-0h-|--3------------L-5-----|------------------------|
--------------------------|-------------------------|------------------------|

  E  S  S  S S  S S S  S  S S  S  S S  S
-----------------------------------------|
-----------------------------------------|
-----------------------------------------|
--L--5h-6p-5-8p-5---5h-6p-5---------5h-7-|
------------------8---------8p-5h-8------|
-----------------------------------------|

  S S  S S S  S S  S S S  S  S S S  S S    Q      H         S  S S S
----------------------------------------|----------------------------|
----------------------------------------|----------------------------|
----------------5h-7-5---------5--------|--------------------------5-|
--5--------5h-6--------6p-5h-6---6p-5---|--5---------------------6---|
----8p-5-8----------------------------7-|-------7~--------5h-8-----|
----------------------------------------|----------------------------|

  W                    E   S S   Q    E    E    Q
--------------------|---------------------------------|
--------------------|---------------------------------|
--7~----------------|--L-------8----L--8--7~----|
--------------------|-----10-7------------------------|
--------------------|---------------------------------|
--------------------|---------------------------------|

  E   Q    E    Q    E   E     E   E   H.                S  Q.     H        S
----------------------------|-------------------------|----------------------|
----------------------------|-------------------------|----------------------|
------8--------11-------12--|--L------12br------------|--7/-9------L---------|L
--7/-------7/--------7------|-----12------------------|----------------------|
----------------------------|-------------------------|----------------------|
----------------------------|-------------------------|----------------------|

  W                   W                   W
-------------------|-------------------|-------------------|-------|-------|
-------------------|-------------------|-------------------|-------|-------|
--L----------------|--L----------------|--L----------------|-------|-------|
-------------------|-------------------|-------------------|-------|-------|
-------------------|-------------------|-------------------|-------|-------|
-------------------|-------------------|-------------------|-------|-------|

                                                          |--3--|
                  H         H            E  S S  S S  S S E  E  E  Q
-------|-------|----------------------|----------------------4--7--L----|
-------|-------|----------------------|-------------------6-------------|
-------|-------|--2~--------1~--------|--L--0-1p-0-3p-0-----------------|
-------|-------|----------------------|-----------------3---------------|
-------|-------|----------------------|---------------------------------|
-------|-------|----------------------|---------------------------------|

  S   S  Q     S   S  Q     S   S  E     E  S   S  Q      E   Q.
--------10~----------12~----------13--|--L--------12~--------10~------|
--------------------------------------|-------------------------------|
--9/-10--------9/-10--------9/-10-----|-----9/-10--------10-----------|
--------------------------------------|-------------------------------|
--------------------------------------|-------------------------------|
--------------------------------------|-------------------------------|

               |--3--|                          |--3--|
   S  S  S  S  S  S  S  S  S  S  S  S  S  S  S  S  S  S
-----------12-------------------12-13-16-17-13-12-14-16-|
--12-13-15----15-13-12-12-12-13-------------------------|
--------------------------------------------------------|
--------------------------------------------------------|
--------------------------------------------------------|
--------------------------------------------------------|

   S  S  S  S  T  T  T  S  S  S  S  S.S S S S S
--12--------------------------------------------|
-----15-13-15-13-12----------12-----------------|
--------------------14-13-14----14-13-L-L-L-L-L-|
------------------------------------------------|
------------------------------------------------|
------------------------------------------------|

  |---3---|   |---3---|   |---3---|
  E   E   E   E   E   E   E   E   E   S  S  S  S
-------------------------------------------------|
-------------15--17----------15--17--------15-17-|
--L--13--14----------13--14----------14-15-------|
-------------------------------------------------|
-------------------------------------------------|
-------------------------------------------------|

   |---3---|   |---3---|   |---3---|
   E   E   E   E   E   E   E   E   E   S  S  S  S
---------------------------------------------------|
----------16--18----------17--20---------18----18b-|
--15--17----------16--17----------17--18----20-----|
---------------------------------------------------|
---------------------------------------------------|
---------------------------------------------------|

                                |---3---|   |--3--|
   H          T   Q    E  S.    E   E   E   S  S  S  H          E
-----------------------------|-------------14-15-17-17b~--------L--|
--18b--------13h-15----L--L--|--L--13--15--------------------------|
-----------------------------|-------------------------------------|
-----------------------------|-------------------------------------|
-----------------------------|-------------------------------------|
-----------------------------|-------------------------------------|

   |---3--|  |---3--|             |--3--|
   E   E  E  E  E   E   E   S  S  S  S  S  S  S
--17~--L--L--L--L--14--15--17-15-17-15-14-14-14-|
------------------------------------------------|
------------------------------------------------|
------------------------------------------------|
------------------------------------------------|
------------------------------------------------|

         |--3--|
   S  S  S  S  S  S  T  T  T  T  T  T  S  S  S  S  S  S  E
------------------------------------------------------------|
--16-15-13-15-16-15-13-12----11-------11-10-------11-10-----|
--------------------------14----13-12-------13-12-------12--|
------------------------------------------------------------|
------------------------------------------------------------|
------------------------------------------------------------|

    |-----3-----|     |------3-----|        |----3----|
    Q     Q     Q     Q      Q     Q        Q    Q    Q    H
----------------------------------------|----------------------------|
--/15----13----13----13\----10----10----|--10----8----8----8~--------|
----x-----x-----x-----x------x-----x----|----------------------------|
--/12----10----10----10\-----7-----7----|----------------------------|
----------------------------------------|----------------------------|
----------------------------------------|----------------------------|

   |---3---|   |---3---|  |--3--|  |--3--|
   E   E   E   E   E   E  E  E  E  E  E  E
--15------13------10------8-----------------|
------15------13------10-----9--8-----8-----|
-----------------------------------8-----8--|
--------------------------------------------|
--------------------------------------------|
--------------------------------------------|

  |--3--|  |--3--|  |--3--|  |--3--|
  E  E  E  E  E  E  E  E  E  E  E  E     W
--------------------------------------|--------------------|
--7-----6-----5-----4-----3-----3-----|--3~----------------|
-----8-----7-----6-----5-----3-----3--|--------------------|
--------------------------------------|--------------------|
--------------------------------------|--------------------|
--------------------------------------|--------------------|

  W
-------------------||
--L----------------||
-------------------||
-------------------||
-------------------||
-------------------||
00:00 / 00:00
Otros videos de esta canción
Repetir
Otros videos de esta canción
Composición de Chris Adler / Mark Morton / Randy Blythe
Colaboración y revisión:
  • Taino Vieira
73 vistas
    • ½ Tono
    • A
    • Bb
    • B
    • C
    • Db
    • D
    • Eb
    • E
    • F
    • F#
    • G
    • Ab
  • Agregar a la lista

    0 comentarios

    Ver todos los comentarios

    ¿Lograste tocar?

    0 Tocaron 0 Aún no

    ¡Graba un video tocando Ashes Of The Wake y envíanoslo!

    00:00 / 00:00
    OK