Cifra Club

Laid To Rest

Lamb of God

Cifrado: Principal (guitarra y guitarra eléctrica)
tono: A
Introdução 1:

(Guitarra 1 - Riff 1)
E|---------------------------------------------------
B|---------------------------------------------------
G|---------------------------------------------------
D|------------------3--------------------------------
A|------6-5-3---------5-6----------------------------
D|0-0-0-------0-0-0-------0-0-0-8-5-4/7-8-7-10-7-8---

E|---------------------------------------------------
B|---------------------------------------------------
G|---------------------------------------------------
D|------4h5p4---------8-7-5-4h5p4---4----------------
A|------------6-------------------6---5-6-3-5---3----
D|0-0-0---------0-0-0-------------------------6---5-6

(Guitarra 1 - Riff 2)
                                               (3x)
H.A.    .           .
E---------------------------------------------------
B---------------------------------------------------
G---------------------------------------------------
D---------------------------------------------------
A---------------------------------------------------
D2-2-2-2-3b--2-2-2-2-3b---2-2--2-2-3-2-5-4-3--------

H.A.    .           .
E---------------------------------------------------
B---------------------------------------------------
G---------------------------------------------------
D---------------------------------------------------
A---------------------------------------------------
D2-2-2-2-3b--2-2-2-2-3b---2-2--2-2-3-2-3-2-1--------


(Guitarra 2 - Passagem)
E---------------------------------------------------
B---------------------------------------------------
G---------------------------------------------------
D0-\----------------------4h5p4---4-----------------
A0-\-0---------0-----------------6---5-6-3-5---3----
D0-\-0---------0-----------------------------6--5-6-

(Guitarra 2 - Riff 2)
                                               (3x)
H.A.    .           .
E---------------------------------------------------
B---------------------------------------------------
G---------------------------------------------------
D---------------------------------------------------
A---------------------------------------------------
D2-2-2-2-3b--2-2-2-2-3b---2-2--2-2-3-2-5-4-3--------

H.A.    .           .
E---------------------------------------------------
B---------------------------------------------------
G---------------------------------------------------
D---------------------------------------------------
A---------------------------------------------------
D2-2-2-2-3b—2-2-2-2-3b---2-2--2-2-3-2-3-2-1--------


Introdução 2:
If there was a single day I could live
A single breath I could take
I'd trade all the others away

(Guirarra 1 -Riff 3)                           (8x)
E---------------------------------------------------
B---------------------13----------------------------
G---15-14----12-14-------15----15-14----------------
D12-------12-------12-------12----------------------
A---------------------------------------------------
D---------------------------------------------------

(Guitarra 1 - Riff 2)

H.A.    .           .
E---------------------------------------------------
B---------------------------------------------------
G---------------------------------------------------
D---------------------------------------------------
A---------------------------------------------------
D2-2-2-2-3b--2-2-2-2-3b---2-2--2-2-3-2-5-4-3--------

H.A.    .           .
E---------------------------------------------------
B---------------------------------------------------
G---------------------------------------------------
D---------------------------------------------------
A---------------------------------------------------
D2-2-2-2-3b--2-2-2-2-3b---2-2--2-2-3-2-3-2-1--------


(Guitarra 2 – Riff 7)                          (4x)
E---------------------------------------------------
B---------------------------------------------------
G---------------------------------------------------
D---------------------------------------------------
A---------------------------------------------------
D0-0-0-0-0---0-0-0-0-0----0-0---0---0-0-0-0---------
P.M.. . .   . . . . .    . .   .   . . . .
(Guitarra 1 - Riff 2)

H.A.    .           .
E---------------------------------------------------
B---------------------------------------------------
G---------------------------------------------------
D---------------------------------------------------
A---------------------------------------------------
D2-2-2-2-3b--2-2-2-2-3b---2-2--2-2-3-2-5-4-3--------

H.A.    .           .
E---------------------------------------------------
B---------------------------------------------------
G---------------------------------------------------
D---------------------------------------------------
A---------------------------------------------------
D2-2-2-2-3b--2-2-2-2-3b---2-2--2-2-3-2-3-2-1--------

Primeira Parte:
The blood's on the wall, so you'd might as well just forget it
And bleach out the stains, commit to forgetting it
You're better off empty and blank
Than left with a single pathetic trace of this
Smother another failure, lay this to rest

(Guitarra 1 - Riff 1 com variação 4x)
E---------------------------------------------------
B---------------------------------------------------
G---------------------------------------------------
D------------------3--------------------------------
A------6-5-3---------5-6----------------------------
D0-0-0-------0-0-0-------0-0-0-8-5-4/7-8-7-10-7-8---

E---------------------------------------------------
B---------------------------------------------------
G---------------------------------------------------
D------4h5p4---------8-7-5-4h5p4---4----------------
A------------6-------------------6---5-6-3h5p3---3--
D0-0-0---------0-0-0---------------------------6----

E---------------------------------------------------
B---------------------------------------------------
G---------------------------------------------------
D---------------------------------------------------
A---------------------------------------------------
D5-6------------------------------------------------

(Guitarra 1 - Riff 4)
E---------------------------------------------------
B---------------------------------------------------
G7---5/-12~--11~\-5~\-3~----------------------------
D--------------------------7~\-5~\-8---7~\-3~\-1~---
A5---3/-10~--9-~\-3~\-1~----------------------------
D--------------------------7~\-5~\-8---7~\-3~\-1~---

(Guitarra 2 - Riff 1 com variação 8x)
E---------------------------------------------------
B---------------------------------------------------
G---------------------------------------------------
D------------------3--------------------------------
A------6-5-3---------5-6----------------------------
D0-0-0-------0-0-0-------0-0-0-8-5-4/7-8-7-10-7-8---

E---------------------------------------------------
B---------------------------------------------------
G---------------------------------------------------
D------4h5p4---------8-7-5-4h5p4---4----------------
A------------6-------------------6---5-6-3h5p3---3--
D0-0-0---------0-0-0---------------------------6----

E---------------------------------------------------
B---------------------------------------------------
G---------------------------------------------------
D---------------------------------------------------
A---------------------------------------------------
D5-6------------------------------------------------

Refrão:

Console yourself, you're better alone
Destroy yourself, see who gives a fuck
Absorb yourself, you're better alone
Destroy yourself

Riff 5:
(Guitarra 1 e 2 Riff 5)                        (2x)
E---------------------------------------------------
B---------------------------------------------------
G---------------------------------------------------
D---------------------------------------------------
A0---0-6-3-5-0---0-1-3-1-0---0-6-3-5-0-1-3-5b6r5-3--
D0---0-6-3-5-0---0-1-3-1-0---0-6-3-5-0-1-3-5b6r5-3--

                                               (2x)
H.A.                                      .
E---------------------------------------------------
B---------------------------------------------------
G---------------------------------------------------
D---------------------------------------------------
A0-0-0-6-3-5-0-0-0-1-3-1-0-0-0-6-3-5-0-1-3-------3--
D0-0-0-6-3-5-0-0-0-1-3-1-0-0-0-6-3-5-0-1-3-5b6r5-3--
P.M.. . . . . . . . . . . . . . . . . . .       .

(Guitarra 1 e 2 – Riff 2)
H.A.    .           .
E---------------------------------------------------
B---------------------------------------------------
G---------------------------------------------------
D---------------------------------------------------
A---------------------------------------------------
D2-2-2-2-3b--2-2-2-2-3b---2-2--2-2-3-2-5-4-3--------

H.A.    .           .
E---------------------------------------------------
B---------------------------------------------------
G---------------------------------------------------
D---------------------------------------------------
A---------------------------------------------------
D2-2-2-2-3b--2-2-2-2-3b---2-2--2-2-3-2-3-2-1--------

Primeira Parte com variação na letra:
I'll chain you to the truth, for the truth shall set you free
I'll turn the screws of vengeance and bury you with honesty
I'll make all your dreams come to life
Then slay them as quickly as they came
Smother another failure, lay this to rest

(Guitarra 1 - Riff 1 com variação 4x)
E---------------------------------------------------
B---------------------------------------------------
G---------------------------------------------------
D------------------3--------------------------------
A------6-5-3---------5-6----------------------------
D0-0-0-------0-0-0-------0-0-0-8-5-4/7-8-7-10-7-8---

E---------------------------------------------------
B---------------------------------------------------
G---------------------------------------------------
D------4h5p4---------8-7-5-4h5p4---4----------------
A------------6-------------------6---5-6-3h5p3---3--
D0-0-0---------0-0-0---------------------------6----

E---------------------------------------------------
B---------------------------------------------------
G---------------------------------------------------
D---------------------------------------------------
A---------------------------------------------------
D5-6------------------------------------------------

(Guitarra 1 - Riff 4)
E---------------------------------------------------
B---------------------------------------------------
G7---5/-12~--11~\-5~\-3~----------------------------
D--------------------------7~\-5~\-8---7~\-3~\-1~---
A5---3/-10~--9-~\-3~\-1~----------------------------
D--------------------------7~\-5~\-8---7~\-3~\-1~---

(Guitarra 2 - Riff 1 com variação 8x)
E---------------------------------------------------
B---------------------------------------------------
G---------------------------------------------------
D------------------3--------------------------------
A------6-5-3---------5-6----------------------------
D0-0-0-------0-0-0-------0-0-0-8-5-4/7-8-7-10-7-8---

E---------------------------------------------------
B---------------------------------------------------
G---------------------------------------------------
D------4h5p4---------8-7-5-4h5p4---4----------------
A------------6-------------------6---5-6-3h5p3---3--
D0-0-0---------0-0-0---------------------------6----

E---------------------------------------------------
B---------------------------------------------------
G---------------------------------------------------
D---------------------------------------------------
A---------------------------------------------------
D5-6------------------------------------------------

Refrão:
Riff 5:
Console yourself, you're better alone
Destroy yourself, see who gives a fuck
Absorb yourself, you're better alone
Destroy yourself,
Riff 5:
(Guitarra 1 e 2 Riff 5)                        (2x)
E---------------------------------------------------
B---------------------------------------------------
G---------------------------------------------------
D---------------------------------------------------
A0---0-6-3-5-0---0-1-3-1-0---0-6-3-5-0-1-3-5b6r5-3--
D0---0-6-3-5-0---0-1-3-1-0---0-6-3-5-0-1-3-5b6r5-3--

                                               (2x)
H.A.                                      .
E---------------------------------------------------
B---------------------------------------------------
G---------------------------------------------------
D---------------------------------------------------
A0-0-0-6-3-5-0-0-0-1-3-1-0-0-0-6-3-5-0-1-3-------3--
D0-0-0-6-3-5-0-0-0-1-3-1-0-0-0-6-3-5-0-1-3-5b6r5-3--
P.M.. . . . . . . . . . . . . . . . . . .       .

Segunda Parte:
See who gives a fuck

(Guitarra 1 - Riff 6)
E---------------------------------------------------
B---------------------------------------------------
G---------------------------------------------------
D---------------------------------------------------
A---------------------------------------------------
D1-1-1-1-1---1-1-1-1-1---1-1---1---1-1-1-1----------
P.M.. . .   . . . . .   . .   .   . . . .

E---------------------------------------------------
B---------------------------------------------------
G---------------------------------------------------
D---------------------------------------------------
A---------------------------------------------------
D1-1-1-1-1---1-1-1-1-1---1-1---1---1-1--------------
P.M.. . .   . . . . .   . .   .   . .
(Guitarra 1: Riff 7)                           (4x)
E---------------------------------------------------
B---------------------------------------------------
G---------------------------------------------------
D---------------------------------------------------
A---------------------------------------------------
D0-0-0-0-0---0-0-0-0-0---0-0---0---0-0-0-0----------
P.M.. . .   . . . . .   . .   .   . . . .
Riff 1 com variação 2:
(Guitarra 1 – Riff 1 com variação 2)           (3x)
E---------------------------------------------------
B---------------------------------------------------
G---------------------------------------------------
D------------------3--------------------------------
A------6-5-3---------5-6----------------------------
D0-0-0-------0-0-0-------0-0-0-8-5-4/7-8-7-10-7-8---

E---------------------------------------------------
B---------------------------------------------------
G---------------------------------------------------
D------------------3-----4h5p4---4------------------
A------6-5-3---------5-6-------6---5-6-3-5---3------
D0-0-0-------0-0-0-------------------------6---5-6--


(Guitarra 2 - Riff 6)
E---------------------------------------------------
B---------------------------------------------------
G---------------------------------------------------
D---------------------------------------------------
A---------------------------------------------------
D1-1-1-1-1---1-1-1-1-1---1-1---1---1-1-1-1----------
P.M.. . .   . . . . .   . .   .   . . . .

E---------------------------------------------------
B---------------------------------------------------
G---------------------------------------------------
D---------------------------------------------------
A---------------------------------------------------
D1-1-1-1-1---1-1-1-1-1---1-1---1---1-1--------------
P.M.. . .   . . . . .   . .   .   . .
(Guitarra 2: Riff 7)                           (7x)
E---------------------------------------------------
B---------------------------------------------------
G---------------------------------------------------
D---------------------------------------------------
A---------------------------------------------------
D0-0-0-0-0---0-0-0-0-0---0-0---0---0-0-0-0----------
P.M.. . .   . . . . .   . .   .   . . . .
E---------------------------------------------------
B---------------------------------------------------
G-------------------------------------/--\----------
D-------------------------------------/--\----------
A-------------------------------------/--\----------
D0-0-0-0-0---0-0-0-0-0---0------------/--\----------
P.M.. . .   . . . . .   .
Failure

Riff 5:
(Guitarra 1 e 2 Riff 5)                        (2x)
E---------------------------------------------------
B---------------------------------------------------
G---------------------------------------------------
D---------------------------------------------------
A0---0-6-3-5-0---0-1-3-1-0---0-6-3-5-0-1-3-5b6r5-3--
D0---0-6-3-5-0---0-1-3-1-0---0-6-3-5-0-1-3-5b6r5-3--

                                               (2x)
H.A.                                      .
E---------------------------------------------------
B---------------------------------------------------
G---------------------------------------------------
D---------------------------------------------------
A0-0-0-6-3-5-0-0-0-1-3-1-0-0-0-6-3-5-0-1-3-------3--
D0-0-0-6-3-5-0-0-0-1-3-1-0-0-0-6-3-5-0-1-3-5b6r5-3--
P.M.. . . . . . . . . . . . . . . . . . .       .


Terceira Parte:
If there was a day I could live
if there was a single breath I could take
I'd trade all the others away

(Guitarra 1 – Frase)
H.A.   .
E---------------------------------------------------
B---------------------------------------------------
G---------------------------------------------------
D---------------------------------------------------
A---------------------------------------------------
D0-3-5--5b6r5-3-------------------------------------

(Guitarra 1 - Riff 8)
E---------------------------------------------------
B---------------------------------------------------
G---------------------------------------------------
D------------------------1-------1---1-------1------
A5-------5---5-------5------------------------------
D--5-0-5---5---5-0-5---5---5-1-5---5---5-1-5---5----

E---------------------------------------------------
B---------------------------------------------------
G---------------------------------------------------
D---------------------------------------------------
A------------------------0-------0---0-------0------
D8-7-5-7-8-7-8-7-5-7-8-7---5-1-0---1---5-1-0---5----

(Guitarra 2 - Frase)
H.A.   .
E---------------------------------------------------
B---------------------------------------------------
G---------------------------------------------------
D---------------------------------------------------
A---------------------------------------------------
D0-4—7--7b8r7-4------------------------------------

(Guitarra 2 - Riff 8)
E---------------------------------------------------
B---------------------------------------------------
G---------------------------------------------------
D------------------------1-------1---1-------1------
A5-------5---5-------5------------------------------
D--5-0-5---5---5-0-5---5---5-1-5---5---5-1-5---5----

E---------------------------------------------------
B---------------------------------------------------
G---------------------------------------------------
D---------------------------------------------------
A------------------------0-------0---0-------0------
D8-7-5-7-8-7-8-7-5-7-8-7---5-1-0---1---5-1-0---5----

Parte Final:
(Guirarra 1 -Riff 3)                           (8x)
E---------------------------------------------------
B---------------------13----------------------------
G---15-14----12-14-------15----15-14----------------
D12-------12-------12-------12----------------------
A---------------------------------------------------
D---------------------------------------------------

(Guitarra 2: Riff 7)                           (4x)
E---------------------------------------------------
B---------------------------------------------------
G---------------------------------------------------
D---------------------------------------------------
A---------------------------------------------------
D0-0-0-0-0---0-0-0-0-0----0-0---0---0-0-0-0---------
P.M.. . .   . . . . .    . .   .   . . . .
Composición de Chris Adler / Mark Morton / Randy Blythe
Colaboración y revisión:
  • Tarsius Lima
  • Pedro Lima
1.697 vistas
    • ½ Tono
    • A
    • Bb
    • B
    • C
    • Db
    • D
    • Eb
    • E
    • F
    • F#
    • G
    • Ab
  • Agregar a la lista

    0 comentarios

    Ver todos los comentarios
    00:00 / 00:00
    Outros vídeos desta música
    Repetir Calidad Automático
    Outros vídeos desta música
    00:00 / 00:00
    Automático
    Capítulos
    • Início
    • Afinação
    • Tocando a música
    • Tocando Introdução 1 (Guitarra 1)
    • Ensinando Introdução 1 (Guitarra 1)
    • Tocando Introdução 2 (Guitarra 1)
    • Ensinando Introdução 2 (Guitarra 1)
    • Tocando Primeira Parte (Guitarra 1)
    • Ensinando Primeira Parte (Guitarra 1)
    • Tocando Refrão e Repetições (Guitarra 1)
    • Ensinando Refrão (Guitarra 1)
    • Tocando Segunda Parte (Guitarra 1)
    • Ensinando Segunda Parte (Guitarra 1)
    • Tocando Terceira Parte (Guitarra 1)
    • Ensinando Terceira Parte (Guitarra 1)
    • Tocando Final (Guitarra 1)
    • Tocando Introdução 1 (Guitarra 2)
    • Ensinando Introdução 1 (Guitarra 2)
    • Tocando Introdução 2 (Guitarra 2)
    • Ensinando Introdução 2 (Guitarra 2)
    • Tocando Primeira Parte e Refrão (Guitarra 2)
    • Ensinando Primeira Parte (Guitarra 2)
    • Ensinando Refrão (Guitarra 2)
    • Tocando Segunda Parte (Guitarra 2)
    • Ensinando Segunda Parte (Guitarra 2)
    • Tocando Terceira Parte (Guitarra 2)
    • Ensinando Terceira Parte (Guitarra 2)
    • Tocando Final
    • Encerramento
    OK