Cifra Club

Pa Pa Pa (Cantemos al Amor)

Los Prisioneros

Cifrado: Principal (guitarra y guitarra eléctrica)
tono: D

Introx2
E|-------------|-------------------|
B|-------------|-------------------|
G|-------------|-------------------|
D|-5555----7-9-|-----5---------7-5-|
A|-------------|-7777-7555-7-9-----|
E|-------------|-------------------|

G5                           C5
ME ENCANTAN A S CANCIONES DE AMOR
              D5
AQUELA S QUE PIDEN UN MUNC  MEJOR
G5
VIVO CON EL EED O AL DEC 
       C5         D5
QUE ALGUNA VEZ APD TARA EL BOTON

E|-------------|-------------------|
B|-------------|-------------------|
G|-------------|-------------------|
D|-5555----7-9-|-----5---------7-5-|
A|-------------|-7777-7555-7-9-----|
E|-------------|-------------------|

  G5                         C5
CD O EN A  LIBERTAD Y EN E  CORAZON
                D5
HAY UN B TIO ESPERANC  POR UNA FLOR
     G5                              C5
A  ESCENA ME PONE NERVIOSO AUNQUE EL SHOW
         D5
DEBE CONTINUAR YO SOY UN PROFEB ONAL.
  C5        D5    C5            D5
ENTDG O DIVERB ON, VAHARADAS DE AMOR

Y E  CORO DICE, Y E  CORO DICE, Y E  CORO DICE:

E|-------------|
B|-------------|
G|-------------|
D|-5555----7-9-|
A|-------------|
E|-------------|
PAPAPAPAPAPAPAPAPA
E|-------------------|
B|-------------------|
G|-------------------|
D|-----5---------7-5-|
A|-7777-7555-7-9-----|
E|-------------------|
PAPAPAPAPAPAPAPAPAPA
         (cantemos al amor)

E|-------------|
B|-------------|
G|-------------|
D|-5555-7-9----|
A|-------------|
E|-------------|
PAPAPAPAPAPAPAPAPA

E|-------------------|
B|-------------------|
G|-------------------|
D|-----5---------7-5-|
A|-7777-7555-7-9-----|
E|-------------------|
PAPAPAPAPAPAPAPAPAPA
         (cantemos a la paz)

 G5
E  DESTINO SON LOS
           C5
AVIONES Y LOS HOTELES
    D5
QUE NO ME DEJAN D IR
 G5
A S PENAS DE AMOR
                C5
ME SUMERGEN EN DEPD B ONES
              D5
LLENAS DE SENBB ILIDAD
 C5           D5       C5         D5
OFD ZCO EL CORAZON, ILUB ONES DE AMOR

Y E  CORO DICE, Y E  CORO DICE, Y E  CORO DICE:

E|-------------|
B|-------------|
G|-------------|
D|-5555----7-9-|
A|-------------|
E|-------------|
PAPAPAPAPAPAPAPAPA

E|-------------------|
B|-------------------|
G|-------------------|
D|-----5---------7-5-|
A|-7777-7555-7-9-----|
E|-------------------|
PAPAPAPAPAPAPAPAPAPA
         (cantemos al amor)

E|-------------|
B|-------------|
G|-------------|
D|-5555----7-9-|
A|-------------|
E|-------------|
PAPAPAPAPAPAPAPAPA

E|-------------------|
B|-------------------|
G|-------------------|
D|-----5---------7-5-|
A|-7777-7555-7-9-----|
E|-------------------|
PAPAPAPAPAPAPAPAPAPA
         (cantemos a la paz)
E|-------------|
B|-------------|
G|-------------|
D|-5555----7-9-|
A|-------------|
E|-------------|
PAPAPAPAPAPAPAPAPA

E|-------------------|
B|-------------------|
G|-------------------|
D|-----5---------7-5-|
A|-7777-7555-7-9-----|
E|-------------------|
PAPAPAPAPAPAPAPAPAPA
         A#5 A5
          (cantemos al amoooor)

UN POQUITO DE AMOR PUEDE CAMBIAR AL MUNC  MUCHACHOS,
CAMBIEMOLO CON ESTA CANCION


PAPAPAPAPAPAPAPAPAPAPAPAPAPAPAPAPAPAPAPA

PAPAPAPAPAPAPAPAPAPAPAPAPAPAPAPAPAPAPAPA

E|-------------|
B|-------------|
G|-------------|
D|-5555----7-9-|
A|-------------|
E|-------------|
PAPAPAPAPAPAPAPAPA

E|-------------------|
B|-------------------|
G|-------------------|
D|-----5---------7-5-|
A|-7777-7555-7-9-----|
E|-------------------|
PAPAPAPAPAPAPAPAPAPA

E|-------------|
B|-------------|
G|-------------|
D|-5555----7-9-|
A|-------------|
E|-------------|
PAPAPAPAPAPAPAPAPA

E|-------------------|
B|-------------------|
G|-------------------|
D|-----5---------7-5-|
A|-7777-7555-7-9-----|
E|-------------------|
PAPAPAPAPAPAPAPAPAPA

   C5         D5       C5            D5
OFD ZCO EL CORAZON, E L ILUB ONES DE AMOR

Y A  SUBIDA DE TONO DICE, Y A  SUBIDA DE TONO DICE,

Y A  SUBIDA DE TONO DICE:

¡¡¡IIIIIAAAAAUUUUU!!!

   G5
TU SABES, UN ARTISTA ES UN HOMBD  SENBB LE
                                       C5
QUE LLORA CUANC  VE CAER UNA FLOR, Y QUE SE

ASUSTA CON COSAS COMO EL DEC  QUE APRIETA EL BOTON,
  D5
ES INCD IBLE COMO CUANC  SUBO A UN ESCENARIO ME
            E5
TRANSFORMO,CUANC  VEO A S LUCES DE COLOD S Y BE NTO

EL CALOR DE A  GENTE.E  CORAZON PALPITA Y SOY OTRO.
  D5
POR ESO E  MENSAJE DEAMOR PARA TOC  EL MUNC 
Composición de Jorge Gonzalez
5 vistas
    • ½ Tono
    • A
    • Bb
    • B
    • C
    • Db
    • D
    • Eb
    • E
    • F
    • F#
    • G
    • Ab
  • Agregar a la lista

    0 comentarios

    Ver todos los comentarios

    ¿Lograste tocar?

    0 Tocaron 0 Aún no

    ¡Graba un video tocando Pa Pa Pa (Cantemos al Amor) y envíanoslo!

    00:00 / 00:00
    Outros vídeos desta música
    Repetir Calidad Automático
    Outros vídeos desta música
    00:00 / 00:00
    Automático
    OK