Cifra Club

Wot's... Uh The Deal

Pink Floyd

Tablatura: Principal (guitarra)
Tom: C
ACORDES:

G:       (x05433)
A6/7:    (xx4032)
F:       (x03031)
Dsus4/E: (x02030)
Gaug/E:  (xx1000)
D7:      (xx0212)
G:       (320003)
G7:      (320001)
Em:      (022000)
Am:      (x02210)
D9:      (xx0210)

-----------------------------------------
-----------------------------------------
Batida da musica: este esquema deve ser usado nos versos e na introdução apenas

        G               A6/7                F                 Dsus4/E          Gaug/E
|-------3---------|-------2---------|-------1---------|-------0---------|-------0---------
|-----3---3-------|-----3---3-------|-----3---3-------|-----3---3-------|-----0---0-------
|---4-------4---4-|---0-------0---0-|---0-------0---0-|---0-------0---0-|---0-------0---0-
|-5-----------5---|-4-----------4---|-3-----------3---|-2-----------2---|-1-----------1---
|-----------------|-----------------|-----------------|-----------------|-----------------
|-----------------|-----------------|-----------------|-----------------|-----------------

      Riff               D7
|-----------------|-------2---------|
|-----------------|-----1---1-------|
|---0---0---0---0-|---2-------2---2-|
|-0---1---2---1---|-0-----------0---|
|-----------------|-----------------|
|-----------------|-----------------|

-----------------------------------------
-----------------------------------------

INTRO: G  A6/7  F  Dsus4/E  Gaug/E  Riff  D7


G               A6/7
Heaven sent the promised land
F                       Dsus4/E
looks alright from where I stand
Gaug/E
'cause I'm the man
       (Riff)            D7
on the outside looking in
G                A6/7
waiting on the first step
F                Dsus4/E
show me where the key is kept
Gaug/E                (Riff)
point me down the right line
                D7
'cause it's time

--------------REFRÃO-----------------
            G           G7
To let me in from the cold
          C    Em   Am
turn my lead into gold
                 G
'cause there's a chill wind
              G7
blowing in my soul
                        D7   D9
and I think I'm growing old
-------------------------------------

G                  A6/7
flash... the radies... wot's... uh the deal
F                       Dsus4/E
got to make it to the next meal
Gaug/E                  (Riff)             D7
try to keep up with the turning of the wheel
G                A6/7
mile after mile stone after stone
F                       Dsus4/E
you turn to speak but you're alone
Gaug/E              (Riff)
million miles from home
                  D7
you're on your own

----------REFRÃO-------------------------------
repetir o primeiro refrão... "To let me in..."
-----------------------------------------------

SOLO: Durante o solo deve-se repetir 3 vezes a introdução


G              A6/7
Fire bright by candle light
F                  Dsus4/E
with her by my side
Gaug/E             (Riff)             D7
if she prefers we need never stir again
G                   A6/7
someone sent the promised land
F                       Dsus4/E
 well I grabbed it with both hands
Gaug/E
now I'm the man
      (Riff)             D7
on the inside looking out

-----------REFRÃO------------------------
        G             G7
Hear me shout come on in
C                         Em   Am
what's the news where you've been
               G                  G7
'cause there's no wind left in my soul
               D7  D9
and I've grown old
-----------------------------------------
reproducciones 1.098
Acordes para:
    Composição: David Gilmour / Roger Waters Colaboración y revision:
    • Alessandro lima

    0 comentarios

    mostrar más comentarios

    ¿Conseguiste tocar?

    6 tocaron 0 aún no

    ¡Graba un vídeo tocando Wot's... Uh The Deal y envianoslo!

    00:00 / 00:00
    outros vídeos desta música
    repetir qualidade Automático
    Outros vídeos desta música
    00:00 / 00:00
    Automático
    OK