Cifra Club

Pyramid song

Radiohead

Tablatura: Principal (guitarra)
Tom: D
I think this is acurrate, seems a bit too simple
I have have arranged piano for guitar.

Intro/Bridge
                                          x1
E|-------------------3-3-3\2-------------3-3- |
B|-------------------3-3-3\2-------------3-3- |
G|---3-3-4-6-6-6-4-4-4-4-4\3-3-3-4-6-6-6-4-4- |
D|---4-4-5-7-7-7-5-5---------4-4-5-7-7-7-5-5- |
A|---4-4-5-7-7-7-5-5---------4-4-5-7-7-7-5-5- |
E|---2-2-3-5-5-5-3-3---------2-2-3-5-5-5-3-3- |

Just mess around on these chords until the vocals come
In, then play the verse.

Verse

E|-----------------------2-2-0-0-0----------- |
B|-----------------------2-2-0-0-0----------- |
G|---3-3-4-6-6-6-4-4-3-3-2-2-1-1-1-4-4-4-4-4- |
D|---4-4-5-7-7-7-5-5-4-4-4-4-2-2-2-5-5-5-5-5- |
A|---4-4-5-7-7-7-5-5-4-4-4-4-2-2-2-5-5-5-5-5- |
E|---2-2-3-5-5-5-3-3-2-2-2-2-0-0-0-3-3-3-3-3- |

The rest of the song skips between the F# G A G F#
chord sequence as in the intro and bridge parts
and the F# G A G F# F#m E G chord sequence in the
verse parts.

Heres a few riffS heard at the breaks.
You could using a slide for these parts

B|-------------------------------- |
G|---11-9-13-9-11-13-9-11-9------- |
D|--------------------------12-11- |
A|-------------------------------- |

E|---14-12-16-12-14-16-12-14-12------- |
B|------------------------------15-14- |
G|------------------------------------ |

B|------------------------ |
G|---12-12-12-12-11-11-11- |
D|------------------------ |
reproducciones 1.176
Acordes para:

    0 comentarios

    mostrar más comentarios

    ¿Conseguiste tocar?

    0 tocaron 1 aún no

    ¡Graba un vídeo tocando Pyramid song y envianoslo!

    00:00 / 00:00
    outros vídeos desta música
    repetir qualidade Automático
    Outros vídeos desta música
    00:00 / 00:00
    Automático
    OK