Cifra Club

Eu Também Vou Reclamar

Raul Seixas

Tab de bajo: Principal
A linha é fácil! Ouça a música pra pegar o ritmo.


Mas é que se agora...

G-----------------------------------------------------------------------------------------------------------
D-----------------------------------------------------------------------------------------------------------
A-----2---------6---------5---------------2---3--------3-----------3---2----------2--2------4--6-------7----
E--0------4----------3--------3-----5-------------3----------3--------------2------------------------------7


G------------------------------------------------------------------------------------------------------------
D---6--------5-----------------------------------------------------------------------------------------------
A------6---------5---------------------2---3--------3--------3-----2---------2---2------4-----6-----7--------
E------------------------3------5---------------3-------3---------------2-------------------------------7---0


G------------------------------------------------------------------------------------------------------------
D-------------------------------------------4------------2----------2---------------1--2----------6-----5----
A---------------------3--------2--------------------2----------2-----------2--2---------------2-------6---5--
E---2----4----5---0-------3--------2-------------------------------------------------------------------------


G--------------------------------------------------------------------------------------------------------------
D--------------------------------------------------------------------6------5----------------------------------
A---------2---3----3-----3----2--------2--2-----4---6------7-----------6-------5------------2-3----3------3-2--
E--3--5----------3-----3-----------2----------------------------7------------------3----5--------3------3------


G--------------------------------------------------------------------------------------------------------------
D------------------------------------------------------------------------------4--------2-------2----2---2-----
A----2--2-----4-----6---7------------------------------3-------3---2---------------2---------2-----------------
E-2-------------------------7--0------2-----4---5--0--------3------------2-------------------------------------


Dois problemas se misturam...

G--------------------------------------------------------------------------------------------------------------
D--------4-------4----4---------4-------4---4---------4--------4----4-----------4-------4---4-----------2------
A----2--------2---------0h2---------2-----------0h2--------2---------------0h2-------2-----------2-------------
E----------------------------------------------------------------------------------------------------0---------


Ligo o rádio e ouço um chato...

G--------------------------------------------------------------------------------------------------------------
D------------------------------------------------4------------2-----------2------------1--2--------------------
A----2------------------------3-------3--2---------------2------------2----------2--2-----------2--------------
E------0-----2---4-----5---0-------3---------2-----------------------------------------------------------------

Olho os livros na minha estante

G--------------------------------------------------------------------------------------------------------------
D----------6----------5----------------------------------------------------------------------------------------
A--------------6----------5------------2----3------------3-------------3----2---------2----2------4----6----7--
E-----------------------------3----5-----------------3------------3-----------------2--------------------------

G--------------------------------------------------------------------------------------------------------------
D-----------6----------5---------------------------------------------------------------------------------------
A----------------6----------5------------------2----3------------3-----------3---2----------2--2----4-----5----
E----7---------------------------3--------5--------------------3----------3--------------2-------------------


Falam em nuvens passageiras

G--------------------------------------------------------------------------------------------------------------
D---------------------------------------------------------------------4---------2-------2---------1--2---------
A-----7------------------------------------------3-----3---2----------------2-------2------2-2-----------------
E------------7-------0-----2------4------5----0-----3--------------2-------------------------------------------


G--------------------------------------------------------------------------------------------------------------
D-----------6------------5-------------------------------------------------------------------------------------
A----2-----------6------------5---------------------2----3---------3----------3-----2---------2---2----4-6-7---
E-------------------------------------3-------5---------------3----------3--------------2--------------------7-

G--------------------------------------------------------------------------------------------------------------
D----6-----------5---------------------------------------------------------------------------------------------
A--------6------------5-------------------2---3----------3---------3---2-----------2--2----4---6----7----------
E-------------------------3------5----------------3----------3--------------2----------------------------7--0--


G--------------------------------------------------------------------------------------------------------------
D-------------------------------------------------------4------------2-------------2----2---2------------------
A----------------------------3----------3---2-----------------2--------------2---------------------------------
E-----2----4----5-----0------------3--------------2------------------------------------------------------------


E as perguntas continuam

G--------------------------------------------------------------------------------------------------------------
D------------4------------4---4--------4--------4---4---------4----------4---4------------4-------4---4--------
A------2---------------2----------0H2-----2------------0H2---------2---------------0H2---------2----------2----
E------------------------------------------------------------------------------------------------------------0-


G--------------------------------------------------------------------------------------------------------------
D----2-----------------------------------------------------------4--------------2----------2----------1--2-----
A---------2-------------------------------------3-----3---2----------------2------------2--------2-2-----------
E-----------------0-------2------4----5------0-----3----------3----2-------------------------------------------


G--------------------------------------------------------------------------------------------------------------
D-----------6-----------5--------------------------------------------------------------------------------------
A---2------------6-----------5----------------------2---3-----------3-------3---2--------2-2----4--6---7-------
E------------------------------------3-------5---------------3----------3------------2--------------------7--0-

G--------------------------------------------------------------------------------------------------------------
D-------------------------------------------------------------------4----------------2-------------------------
A---------------------------------3------------3---2-------------------------2---------------------------------
E----2--------4-----5-----0-------------3-------------------2--------------------------------------------------

Final

G--------------------------------------------------------------------------------------------------------------
D---------2----------------------------------------------------------------------------------------------------
A------------------2-------------------------------------------------------------------------------------------
E-----------------------------2------------------0-------------------------------------------------------------


E FIM DE PAPO!


Marcos Vinicius

facebook/email--- vinicius-104@hotmail.com
00:00 / 00:00
Otros videos de esta canción
Repetir
Otros videos de esta canción
Composición de Paulo Coelho / Raul Seixas
Colaboración y revisión:
  • Marcos
49 exhibiciones
00:00 / 00:00
OK