Cifra Club

Baby Appeal

Red Hot Chili Peppers

Tablatura: Versão 4 (guitarra)
tono: D
Intro:
      F#7/9                F#7/9
E|-----------------------------------------------------------------|
B|--9--9-9---------------9--9-9------------------------------------|
G|--9--9-9---------------9--9-9------------------------------------|
D|--8--8-8---------------8--8-8------------------------------------|
A|--9--9-9---7-9--7-9----9--9-9---7-9--7-9-------------------------|
E|--------------------------------------------2-2-0-2---0-2-2-0-2--|

Verso 1:
   F#7/9  (2x)    D7/9      F#7/9  (3x)
E|---------|-----------|--------------|--------------|
B|-9--9-9--|---5--5-5--|--9--9-9------|--------------|
G|-9--9-9--|---5--5-5--|--9--9-9------|--------------|
D|-8--8-8--|---4--4-4--|--8--8-8------|--------------|
A|-9--9-9--|---5--5-5--|--9--9-9------|--7-9--7-9----|
E|---------|-----------|--------------|--------------|

Refrão:
E|------------12~------------------|-------------------------------------|
B|---------------------------------|-------------------------------------|
G|--x-9-9-6-7-------x-9-9-6--------|---x-9-9-6-7-7-7/9----x-9-9-6--------|
D|--x-9-9-6-7-------x-9-9-6---5--7-|---x-9-9-6-7-7--------x-9-9-6--5--7--|
A|----------------------------5--7-|-------------------------------5--7--|
E|-0---------------0--------3---5--|-0------------------0---------3--5---|

E|------------12~------------------|-----------------------------------------|
B|---------------------------------|-----------------------------------------|
G|--x-9-9-6-7-------x-9-9-6--------|---x-9-9-6-7-x-x-9--------x-9-9-6--------|
D|--x-9-9-6-7-------x-9-9-6---5--7-|---x-9-9-6-7-x-x----------x-9-9-6--5--7--|
A|----------------------------5--7-|------------------10~--------------5--7--|
E|-0---------------0--------3---5--|-0---------------------0---------3--5----|

Verso 2:
      F#7/9                F#7/9                F#7/9  (6x)
E|------------------------------------------|-----------|-----------|
B|--9--9-9---------------9--9-9-------------|--9--9-9---|-----------|
G|--9--9-9---------------9--9-9-------------|--9--9-9---|-----------|
D|--8--8-8---------------8--8-8-------------|--8--8-8---|-----------|
A|--9--9-9---7-9--7-9----9--9-9---7-9--7-9--|--9--9-9---|-7-9--7-9--|
E|------------------------------------------|-----------|-----------|

(Refrão)

Passagem:
E|------------------------------------------------------------------|
B|------------------------------------------------------------------|
G|------------------------------------------------------------------|
D|--------------------------2-2--2-2-------------------5~-----------|
A|---------5/7-5-4-5-4------2-2--2-2------5/7-5-4-5-4---------------|
E|--19/0-0-------------3~---0-0--0-0--------------------------------|

(Verso 1)

(Refrão)

(Passagem)
Composição de Anthony Kiedis / Cliff Martinez / Flea / Hillel Slovak / Jack Sherman
Colaboración y revision:
  • Eduardo Silva
5 reproducciones
    • ½ Tono
    • A
    • Bb
    • B
    • C
    • Db
    • D
    • Eb
    • E
    • F
    • F#
    • G
    • Ab
  • Adicionar à lista

    0 comentarios

    Ver todos os comentários

    ¿Conseguiste tocar?

    0 Tocaram 0 Ainda não

    Grave um vídeo tocando Baby Appeal e nos envie!

    00:00 / 00:00
    outros vídeos desta música
    repetir qualidade Automático
    Outros vídeos desta música
    00:00 / 00:00
    Automático
    OK