Cifra Club

Mellowship Slinky In B Major

Red Hot Chili Peppers

Tab de bajo: Principal
G|-----------------------------------|
D|-----------------------------------|
A|-4--3--2--5-6-7-------5--7-7-5-7---|
E|----------------0-0--7-7-----------|
      
G|--------------------------------|
D|--------------------------------|
A|-4--3--2--5-6-7-------5--7------|
E|----------------0-0--7-7---0-0--|

G|---8--------------|--8-------------------|
D|-----9------99x99-|----9-----99x77-------|
A|-------9----------|------9---------------| 
E|-7-------7--------|--------7-------------|

G|---8-----------------8-------------------------------------|
D|-----9------99x99------9------9-8-7--------------7-99------|
A|-------9-----------------9----------9-8-7-5-7-8-9---------|
E|-7-------7---------7-------7-------------------------------|
                               

G|---8-------------------------------------|
D|-----9------9-8-7--------------7-99------|
A|-------9----------9-8-7-5-7-8-9----------|
E|-7-------7-------------------------------|
             ^                   ^

Refrão
G|------------------------------------------------|
D|-----------------5--------------------4---------|
A|---7-5h7-5h7-5h7---7--4h5-4h5-4h5-4h5---5-------|
E|------------------------------------------------|


G|-----------------------------------------------------------------------------------------------|
D|-----------------5-----------------------------------------------------------------------------|
A|-5h7-5h7-5h7-5h7---7---5-4h5-4-5-4h5-4-5-4h5-4-------------------------------------------------|
E|------------------------------------------------3--2--1--0-------------------------------------|
Composição de Anthony Kiedis / Chad Smith / Flea / John Frusciante
Colaboración y revision:
  • Luiz Liz
78 reproducciones

0 comentarios

Ver todos os comentários

¿Conseguiste tocar?

2 Tocaram 0 Ainda não

Grave um vídeo tocando Mellowship Slinky In B Major e nos envie!

00:00 / 00:00
outros vídeos desta música
repetir qualidade Automático
Outros vídeos desta música
00:00 / 00:00
Automático
OK