Cifra Club

House Of Rising Sun

The Animals

Tab de bajo: Principal
This is an easy bass line to lay, it just goes with the lowest note of the chord!!!

Thre are two chord progressions in the song

1st one: Am, C, D, F, A, C, E
2nd one: Am, C, D, F, A, Em, A

Just go on playing it one after another throughout the song!!!

Now to the bass line:

Pick each note once, see the guitar tab for reference:

Riff1 (for the first progression):

     Am   C    D    F    Am   C    E
G|-------------------------------------|
D|-------------------------------------|
A|---0----3----5---------0----3--------|
E|------------------1--------------0---|

Riff2 ( for the second one):

     Am   C    D    F    Am   Em   Am
G|-------------------------------------|
D|-------------------------------------|
A|---0----3----5---------0---------0---|
E|------------------1---------0--------|

It is just the basis, though the band played it that way.
If it is too simple for you try to improvise like my father
does while playing this song.

Cheers from preacher (*)
reproducciones 320

0 comentarios

mostrar más comentarios

¿Conseguiste tocar?

0 tocaron 0 aún no

¡Graba un vídeo tocando House Of Rising Sun y envianoslo!

00:00 / 00:00
outros vídeos desta música
repetir qualidade Automático
Outros vídeos desta música
00:00 / 00:00
Automático
OK