Cifra Club

Hotel California

Eagles

Tablatura: Versão 8
reproducciones 11.626
Tono: D
Intro:
  Bm                                     F#/A#
E|-7----------7--------7-----------------6-----------6--------6---|
B|-7-----7----------7-----------7--------7-----7-----------7------|
G|-7--7----------7-----------7-----------6--6-----------6---------|
D|----------------------------------------------------------------|
A|---------------------------------------9--------9---------------|
E|-7--------7-------------7---------------------------------------|

   A                                     E/G#
E|-5----------5--------5-----------------7-----------7--------7---|
B|-5-----5----------5-----------5--------9-----9-----------9------|
G|-6--6----------6-----------6-----------9--9-----------9---------|
D|----------------------------------------------------------------|
A|-0--------0--------------0-------------7--------7---------------|
E|----------------------------------------------------------------|

   G                                     D/F#
E|-3----------3--------3-----------------2-----------2--------2---|
B|-3-----3----------3--------------------3-----3-----------3------|
G|-0--0----------0-----------------------2--2-----------2---------|
D|--------------------------------0-------------------------------|
A|----------------------------0h2---------------------------------|
E|-3--------3--------------3-------------2-------2----------------|

   Em                                    F#
E|-0----------0--------0-----------------2-----------2--------2---|
B|-0-----0----------0-----------0--------2-----2-----------2------|
G|-0--0----------0-----------0-----------3--3-----------3---------|
D|----------------------------------------------------------------|
A|----------------------------------------------------------------|
E|-0--------0--------------0-------------2--------2---------------|

Intro 2x:

E|--------------3--3--3--3--3--3--3--3--3--|
B|--4--4--4--4--2--2--2--2--2--2--2--2--2--|
G|--3--3--3--3--1--1--1--1--1--1--1--1--1--|
D|--2--2--2--2-----------------------------|
A|--1--1--1--1-----------------------------|
E|-----------------------------------------|

Verse
Bm                        F#/A#
On a dark desert highway, cool wind in my hair
A                      E/G#
Warm smell of colitas, rising up through the air
G                         D/F#
Up ahead in the distance, I saw a shimmering light
Em
My head grew heavy and my sight grew dim
F#
I had to stop for the night
Bm                               F#/A#
There she stood in the doorway,  I heard the mission bell
A                                          E/G#
And I was thinking to myself this could be heaven or this could be hell
G                        D/F#
Then she lit up a candle, and she showed me the way
Em                                   F#
There were voices down the corridor, I thought I heard them say: Chorus
G                           D    [Fill 1]
Welcome to the Hotel California
       F#/A#                                            Bm [Fill 2]
Such a lovely place... such a lovely place... such a lovely face
G                                  D/F#   [Fill 3]
Plenty of room at the Hotel California
    Em                                          F#
Any time of year... any time of year... you can find it here

Fill 1
E|--------------------------------------------------------|
B|10-12-10-12/14-12-10------------------------------------|
G|11-12-11-12/14-12-11------------------------------------|
D|--------------------------------------------------------|
A|--------------------------------------------------------|
E|--------------------------------------------------------| 

Fill 2
E|--------------------------------------------------------|
B|--------------------------------------------------------|
G|--------------------------------------------------------|
D|----------------2----4----5-----------------------------|
A|2----4----5---------------------------------------------|
E|--------------------------------------------------------| 

Fill 3
E|----------------------7-5-------------------------------|
B|-15----15----15----8--8-7-------------------------------|
G|-14h16-14h16-16-7--------------------------------------|
D|--------------------------------------------------------|
A|--------------------------------------------------------|
E|--------------------------------------------------------| 

Verse
Bm                           F#/A#
Her mind is Tiffany twisted, she got the Mercedes benz, uh!
A                                    E/G#
She got a lot of pretty, pretty boys that she calls friends
G                                D/F#
How they dance in the courtyard, sweet summer sweat
Em                      F#
Some dance to remember, some dance to forget
Bm                          F#/A#
So I called up the captain, "Please bring me my wine," he said
A                                      E/G#
"We haven't had that spirit here since nineteen sixty-nine"
G                                       D/F#
And still those voices are calling from far away
Em                                      F#
Wake you up in the middle of the night, just to hear them say Chorus
G                           D/F#    [Fill 4]
Welcome to the Hotel California
       F#/A#                                            Bm [Fill 2]
Such a lovely place... such a lovely place... such a lovely face
G                               D/F#   [Fill 5]
Livin it up at the Hotel California
       Em                                                  F#
What a nice surprise... what a nice surprise... bring your alibis

Fill 4
E|-10--------------------10-------------------------------|
B|--------------------10----------------------------------|
G|----9b-r-7----9b-r--------------------------------------|
D|-----------7--------------------------------------------|
A|--------------------------------------------------------|
E|--------------------------------------------------------| 

Fill 5
E|-----22-22----------------------------------------------|
B|-22b-------22b-r19--------------------------------------|
G|--------------------21b~~--21~~~------------------------|
D|--------------------------------------------------------|
A|--------------------------------------------------------|
E|--------------------------------------------------------| 

Verse
Bm                      F#/A#
Mirrors on the ceiling, the pink champagne on ice, and she said,
A                                E/G#
"We are all just prisoners here, of our own device"
G                             D/F#
And in the master's chambers, they gathered for the feast
Em                                              F#
They stab it with their steely knives, but they just can't kill the beast
Bm                     F#/A#
Last thing I remember, I was running for the door
A                                     E/G#
I had to find the passage back to the place I was before
G                                  D/F#
"Relax" said the nightman, "We are programmed to receive"
Em                                   F#
"You can check out anytime you like, but you can never leave"

Solo
E|--------------------------------------------------------|
B|----10h12-12b---10-12-----------7-----------------------|
G|11-------------------9~~~--7h9---7---------------------|
D|------------------------------------8~~~--7h9p7-7~~~~---|
A|--------------------------------------------------------|
E|--------------------------------------------------------| 

E|------------------------------------------10------------|
B|--------------------------------------10b----10r-7h10-8b|
G|7h9/11-7-----------7h9/11-7-----------------------------|
D|---------9p7h9~~~-----------9p7h9~~~--------------------|
A|--------------------------------------------------------|
E|--------------------------------------------------------| 

E|10b-10-10b-7----10--------------10----------------------|
B|-------------10b--10r-8-10-8----------------------------|
G|-----------------------------9b----9-9r-7---76-7~~~----|
D|------------------------------------------7-------------|
A|--------------------------------------------------------|
E|--------------------------------------------------------| 

E|----------------------------------------------7---------|
B|----7b-7b-r-------7b-7b-7b-r--------7-10----7-----------|
G|7h9---------9-7h9------------9-7-9b------9b-----9b-r7-9b|
D|--------------------------------------------------------|
A|--------------------------------------------------------|
E|--------------------------------------------------------| 

E|---7---------7----7-------------------------------------|
B|---7-10----7--------7----7-7----------------------------|
G|9b------9b-----9b-----9b-----9b-r-7-9-7-9b~~~-----------|
D|--------------------------------------------------------|
A|--------------------------------------------------------|
E|--------------------------------------------------------| 

E|------------------------------10------------------------|
B|---------------10b-10-7-10/12----10-12-11-10-9~~~-------|
G|11b-r-11-9-7--------------------------------------------|
D|-------------9------------------------------------------|
A|--------------------------------------------------------|
E|--------------------------------------------------------| 

E|--------------------17------------------15-16-17-/19----|
B|----12-15-17-15-17b----17r-15-17-15-17b-----------------|
G|14b-----------------------------------------------------|
D|--------------------------------------------------------|
A|--------------------------------------------------------|
E|--------------------------------------------------------| 

E|--------------------17-17------------17-17--------------|
B|17b-r-15~~~-17--17b-------17r-15-17b-------17r-17b~~~---|
G|--------------------------------------------------------|
D|--------------------------------------------------------|
A|--------------------------------------------------------|
E|--------------------------------------------------------| 

E|---------17b-----10-----10------------------------------|
B|17b-r-15-----13b----13b----------------11~~~------------|
G|---------------------------1197-----------------------|
D|----------------------------------9-8-------------------|
A|--------------------------------------------------------|
E|--------------------------------------------------------| 

E|12b-12-12-12-12-12-12r-12-12-12-12p10----12p12----------|
B|--------------------------------------12-------12~~~----|
G|--------------------------------------------------------|
D|--------------------------------------------------------|
A|--------------------------------------------------------|
E|--------------------------------------------------------| 

E|------------------------7-------------------------------|
B|10-------------10---------7-10---7----------------------|
G|---119-7-9/11----7-9b--------9---7-9---7--------------|
D|---------------------------------------9-----7----------|
A|-------------------------------------------9---97-5-7/9|
E|--------------------------------------------------------| 

E|---------------------------------------------9----------|
B|--7---10p7--------------------7-8-7~~~-11-12------------|
G|----7------9b-r-7~~~-7-9~~~-9---------------------------|
D|7-------------------------------------------------------|
A|--------------------------------------------------------|
E|--------------------------------------------------------| 

E|10-------10-------10-------10-------10------------------|
B|---12-------12-------12-------12-------12---------------|
G|------11-------11-------11-------11-------11------------|
D|--------------------------------------------------------|
A|--------------------------------------------------------|
E|--------------------------------------------------------|

E|9-------9-------9----12b--------------------------------|
B|--11------11------11------------------------------------|
G|-----11------11-----------------------------------------|
D|--------------------------------------------------------|
A|--------------------------------------------------------|
E|--------------------------------------------------------| 

E|9-------9------9------9------9------7-----7-----7---10b-|
B|--10------10-----10-----10-----10-----9-----9-----9-----|
G|-----9-------9------9------9------9-----9-----9---------|
D|--------------------------------------------------------|
A|--------------------------------------------------------|
E|--------------------------------------------------------| 
                                         Repeat and fade out
E|7-----7-----7-----7-----7-----5-----5-----5---8b--------|
B|--8-----8-----8-----8-----8-----7-----7-----7-----------|
G|----7-----7-----7-----7-----7-----7-----7---------------|
D|--------------------------------------------------------|
A|--------------------------------------------------------|
E|--------------------------------------------------------|
Acordes para:

    0 comentarios

      mostrar más comentarios

      ¿Conseguiste tocar?

      35tocaron1aún no

      ¡Graba un vídeo tocando Hotel California y envianoslo!

      00:00 / 00:00
      outros vídeos desta música
      repetirqualidadeautomática
      Outro vídeos desta música
        00:00 / 00:00
        automática
        OK