Cifra Club

You Know I'm No Good

Amy Winehouse

Cifrado: Principal (guitarra y guitarra eléctrica)
Selo Cifra Club: esta cifra foi revisada para atender aos critérios oficiais da nossa Equipe de Qualidade.
tono: Dm
[Intro] Dm

[Tab - Intro]

Parte 1 de 2
E|-----------------------------------------------------|
B|-----x------------x----------------------------------|
G|-----x------------x----------------------------------| (4x)
D|-x---x--x-x-x-x---x---x------------------------------|
A|-x---x--x-x-x-x---x---x------------------------------|
E|-----------------------------------------------------|
   ↓   ↓  ↑ ↓ ↑ ↓   ↓   ↓

Parte 2 de 2
E|-----------------------------------------------------|
B|-----x--x--------------------------------------------|
G|-----x--x--------------------------------------------| (4x)
D|-----x--x--------------------------------------------|
A|-5---x--x--0-0-3-4-----------------------------------|
E|-----------------------------------------------------|

[Primeira Parte]

 Dm                    
Meet you downstairs 
        Gm
In the bar and heard
      A7                   
Your rolled up sleeves 
           Dm
And your skull t-shirt
         
You say why did you do 
         Gm
It with him today?
      A7           
And sniff me out 
            Dm
Like I was Tanqueray

[Pré-Refrão 1]

Gm
   Cause you're my fella, my guy
E7
   Hand me your stella and fly
 F
By the time I'm out the door
     E7                A7
You tear me down like Roger Moore

[Refrão 1]

[Tab - Refrão 1]

Parte 1 de 3
        Dm                  Am
E|------5-5-5-5--5-5--------5-5-5-5--5-5----|
B|------6-6-6-6--6-6--------5-5-5-5--5-5----|
G|------7-7-7-7--7-7--------5-5-5-5--5-5----|
D|------7-7-7-7--7-7--------7-7-7-7--7-7----|
A|-4-5--5-5-5-5--5-5--------7-7-7-7--7-7----|
E|----------------------4-5-5-5-5-5--5-5----|
        ↓ ↑ ↑ ↓  ↓ ↑        ↓ ↑ ↑ ↓  ↓ ↑      

Parte 2 de 3
        E7                      Am
E|------7-7-7-7--7-7-7-7--------5-5-5-5--5-5-|
B|------9-9-9-9--9-9-9-9--------5-5-5-5--5-5-|
G|------7-7-7-7--7-7-7-7--------5-5-5-5--5-5-|
D|------9-9-9-9--9-9-9-9--------7-7-7-7--7-7-|
A|-6-7--7-7-7-7--7-7-7-7--------7-7-7-7--7-7-|
E|--------------------------4-5-5-5-5-5--5-5-|
        ↓ ↑ ↑ ↓  ↓ ↑            ↓ ↑ ↑ ↓  ↓ ↑    

Parte 3 de 3
E|------------------------------------------|
B|-----x------------x------x----------------|
G|-----x------------x------x----------------|
D|-x---x--x-x-x-x---x---x--x----------------|
A|-x---x--x-x-x-x---x---x--x----------------|
E|-----------------------------5-7-8-7-5----|
   ↓   ↓  ↑ ↓ ↑ ↓   ↓   ↓  ↓ 

Dm                  Am
   I cheated myself
         E7     Am
Like I knew  I would
   Dm              Am
I told ya, I was trouble
      E7              Am          
You know that I'm no good

[Segunda Parte]

[Tab - Segunda Parte]

Parte 1 de 2
        Dm                 Gm
E|------5-5--5-5-5-5-------3-3-3-3--------|
B|------6-6--6-6-6-6-------3-3-3-3--------|
G|------7-7--7-7-7-7-------3-3-3-3--------|
D|------7-7--7-7-7-7-------5-5-5-5--------|
A|-4-5--5-5--5-5-5-5-------5-5-5-5--------|
E|--------------------2-3--3-3-3-3-3-4-5--|
        ↓ ↑  ↑ ↓ ↓ ↑       ↓ ↑ ↑ ↓    

Parte 2 de 2
   A7                 Dm
E|-5-5--5-5-5-5-------5-5--5-5-5-5---------|
B|-5-5--5-5-5-5-------6-6--6-6-6-6---------|
G|-6-6--6-6-6-6-------7-6--6-6-6-6---------|
D|-5-5--5-5-5-5-------7-7--7-7-7-7---------|
A|-7-7--7-7-7-7--4-5--5-5--5-5-5-5---------|
E|-5-5--5-5-5-5----------------------------|
   ↓ ↑  ↑ ↓ ↓ ↑       ↓ ↑  ↑ ↓ ↓ ↑    

Dm                     Gm
Upstairs in bed, with my ex boy
 A7                       Dm
He's in the place, but I can't get joy
                        Gm
Thinking on you in the final throes
  A7             Dm
This is when my buzzer goes

[Pré-Refrão 2]

Gm
   Run out to meet you

Chips and pitta
E7
   You say when we're married 'cause 

You're not bitter
  F
There'll be none of him no more
    E7                  A7
I cried for you on the kitchen floor

[Refrão 2]

[Tab - Refrão 2]

Parte 1 de 3
        Dm                  Am
E|------5-5-5-5--5-5--------5-5-5-5--5-5----|
B|------6-6-6-6--6-6--------5-5-5-5--5-5----|
G|------7-7-7-7--7-7--------5-5-5-5--5-5----|
D|------7-7-7-7--7-7--------7-7-7-7--7-7----|
A|-4-5--5-5-5-5--5-5--------7-7-7-7--7-7----|
E|----------------------4-5-5-5-5-5--5-5----|
        ↓ ↑ ↑ ↓  ↓ ↑       ↓ ↑  ↑ ↓  ↓ ↑      

Parte 2 de 3
        E7                      Am      
E|------7-7-7-7--7-7-7-7--------5-5-5-5--5-5-|
B|------9-9-9-9--9-9-9-9--------5-5-5-5--5-5-|
G|------7-7-7-7--7-7-7-7--------5-5-5-5--5-5-|
D|------9-9-9-9--9-9-9-9--------7-7-7-7--7-7-|
A|-6-7--7-7-7-7--7-7-7-7--------7-7-7-7--7-7-|
E|--------------------------4-5-5-5-5-5--5-5-|
        ↓ ↑ ↑ ↓  ↓ ↑           ↓ ↑ ↑ ↓   ↓ ↑    

Parte 3 de 3
        E7                 Am
E|------7-7-7-7--7-7-------5----------------|
B|------9-9-9-9--9-9-------5----------------|
G|------7-7-7-7--7-7-------5----------------|
D|------9-9-9-9--9-9-------7----------------|
A|-6-7--7-7-7-7--7-7-------7----------------|
E|-----------------------4-5--5-7-8-7-5-----|
            ↓ ↑ ↑ ↓   ↓ ↑       ↓     

Dm                  Am
   I cheated myself
         E7    Am
Like I knew I would
   Dm              Am
I told ya, I was trouble
      E7              Am          
You know that I'm no good

[Ponte] Dm  Am  E7  Am
        Dm  Am  E7  Am

[Tab - Ponte]

Parte 1 de 3
   Dm    
E|-10-10--10-10---10h11-10------------------|
B|-10-10--10-10---10-------13---------------|
G|-10-10--10-10---10------------------------|
D|-0--------------0-------------------------|
A|------------------------------------------|
E|------------------------------------------|
   ↓  ↓   ↑  ↑    ↓

Parte 2 de 3
   Am    
E|-------------------8----------------------|
B|-10-10---10-10-10-----10------------------|
G|-9--9----9--9--9--------------------------|
D|-10-10---10-10-10-------------------------|
A|-0--0----0--0--0--------------------------|
E|------------------------------------------|
   ↓  ↓    ↑  ↑  ↓
        
Parte 3 de 3
   E
E|-12-12----12--11-10-8---------------------|
B|-12-12----12------------------------------|
G|-13-13----13------------------------------|
D|-14-14----14------------------------------|
A|-14---------------------------------------|
E|-0----------------------------------------|
   ↓  ↓     ↑  

[Terceira Parte]

[Tab - Terceira Parte]

Parte 1 de 3
   Dm    Gm    A7    Dm
E|-5-----3-----5-----5-----x---------------|
B|-6-----3-----5-----6-----x---------------|
G|-7-----3-----6-----7-----x---------------|
D|-7-----5-----5-----7-----x---------------|
A|-5-----5-----7-----5-----x---------------|
E|-------3-----5-----------x---------------|
   ↓     ↓     ↓     ↓     ↓ 

Parte 2 de 3
        Dm                 Gm
E|------5-5--5-5-5-5-------3-3-3-3--------|
B|------6-6--6-6-6-6-------3-3-3-3--------|
G|------7-7--7-7-7-7-------3-3-3-3--------|
D|------7-7--7-7-7-7-------5-5-5-5--------|
A|-4-5--5-5--5-5-5-5-------5-5-5-5--------|
E|--------------------2-3--3-3-3-3-3-4-5--|
        ↓ ↑  ↑ ↓ ↓ ↑       ↓ ↑ ↑ ↓    

Parte 3 de 3
   A7                 Dm
E|-5-5--5-5-5-5-------5-5--5-5-5-5---------|
B|-5-5--5-5-5-5-------6-6--6-6-6-6---------|
G|-6-6--6-6-6-6-------7-6--6-6-6-6---------|
D|-5-5--5-5-5-5-------7-7--7-7-7-7---------|
A|-7-7--7-7-7-7--4-5--5-5--5-5-5-5---------|
E|-5-5--5-5-5-5----------------------------|
   ↓ ↑  ↑ ↓ ↓ ↑       ↓ ↑  ↑ ↓ ↓ ↑    

Dm                   Gm
   Sweet reunion, Jamaica and Spain
 A7                Dm
We're like how we were again
                    Gm
I'm in the tub, you on the seat
 A7                  Dm
Lick your lips as I soak my feet

[Pré-Refrão 3]

Gm
   Then you notice lickle carpet burn
E7
   My stomach drops 

Yeah and my guts churn
F
  You shrug and it's the worst
     E7              A7
To truly stuck the knife in first

[Refrão 3]

[Tab - Refrão 3]

Parte 1 de 3
        Dm                  Am
E|------5-5-5-5--5-5--------5-5-5-5--5-5----|
B|------6-6-6-6--6-6--------5-5-5-5--5-5----|
G|------7-7-7-7--7-7--------5-5-5-5--5-5----|
D|------7-7-7-7--7-7--------7-7-7-7--7-7----|
A|-4-5--5-5-5-5--5-5--------7-7-7-7--7-7----|
E|----------------------4-5-5-5-5-5--5-5----|
        ↓ ↑ ↑ ↓  ↓ ↑        ↓ ↑ ↑ ↓  ↓ ↑      

Parte 2 de 3
        E7                      Am     
E|------7-7-7-7--7-7-7-7--------5-5-5-5--5-5-|
B|------9-9-9-9--9-9-9-9--------5-5-5-5--5-5-|
G|------7-7-7-7--7-7-7-7--------5-5-5-5--5-5-|
D|------9-9-9-9--9-9-9-9--------7-7-7-7--7-7-|
A|-6-7--7-7-7-7--7-7-7-7--------7-7-7-7--7-7-|
E|--------------------------4-5-5-5-5-5--5-5-|
        ↓ ↑ ↑ ↓  ↓ ↑            ↓ ↑ ↑ ↓  ↓ ↑    

Parte 3 de 3
     Am
E|---5---------------------------------------|
B|---5---------------------------------------|
G|---5---------------------------------------|
D|---7---------------------------------------|
A|---7---------------------------------------|
E|-4-5---------------------------------------|
     ↓ 

Dm                  Am
   I cheated myself
         E7    Am
Like I knew I would
   Dm              Am
I told ya, I was trouble
      E7              Am          
You know that I'm no good

Dm                  Am
   I cheated myself
         E7    Am
Like I knew I would
   Dm              Am
I told ya, I was trouble
            E7              Am          
Yeah, you know that I'm no good
Otros videos de esta canción
    680.608 exhibiciones
    • Simplificar cifrado
      • ½ Tono
      • Am
      • Bbm
      • Bm
      • Cm
      • C#m
      • Dm
      • Ebm
      • Em
      • Fm
      • F#m
      • Gm
      • G#m
    • Agregar a la lista

    Afinación de cifrado

    Afinador online

      Capítulos
      • Abertura
      • Introdução
      • Pré-Refrão
      • Refrão
      • Segunda Parte
      • Pré-Refrão
      • Refrão
      • Ponte
      • Terceira Parte
      • Pré-Refrão
      • Refrão
      • Acordes Introdução e Primeira Parte
      • Ensinando Introdução e Primeira Parte
      • Acordes Pré-Refrão e Refrão
      • Ensinando Pré-Refrão e Refrão
      • Ensinando Segunda Parte
      • Ensinando Segundo Refrão
      • Acordes Ponte
      • Ensinando Ponte
      • Encerramento
      OK