Cifra Club

Me vuelvo mono

Chancho En Piedra

Cifrado: Principal (guitarra y guitarra eléctrica)
Selo Cifra Club: esta cifra foi revisada para atender aos critérios oficiais da nossa Equipe de Qualidade.
tono: C
Intro Con wah

E|-----------|-----------|----------|
B|-------3-5-|-------3-5-|------3---|
G|-2-4-5-----|-2-4-5-----|-2-4-5--5-|
D|-----------|-----------|----------|
A|-----------|-----------|----------|
E|-----------|-----------|----------|

Verso en orden (estan todas las variaciones
en el orden que van,etc)
Tu poni los rasgueos
E|-----------|-----------|----------|-----------|
B|-------3-5-|-------3-5-|------3---|-5-3-------|
G|-2-4-5-----|-2-4-5-----|-2-4-5--5-|-----5-2-2-|
D|-----------|-----------|----------|-----------|
A|-----------|-----------|----------|-----------|
E|-----------|-----------|----------|-----------|


E|-----------|-----------|----------|-7-7-|
B|-------3-5-|-------3-5-|------3---|-5-5-|
G|-2-4-5-----|-2-4-5-----|-2-4-5--5-|-5-5-|
D|-----------|-----------|----------|-----|
A|-----------|-----------|----------|-----|
E|-----------|-----------|----------|-----|


E|-----------|-----------|----------|---------------------|
B|-------3-5-|-------3-5-|------3---|----3-4^-4^-4^-4^-5--|
G|-2-4-5-----|-2-4-5-----|-2-4-5--5-|-5-------------------|
D|-----------|-----------|----------|---------------------|
A|-----------|-----------|----------|---------------------|
E|-----------|-----------|----------|---------------------|

E|-----------|----------|--------------------|
B|-------3-5-|------3---|-3-4b5b4-3----------|
G|-2-4-5-----|-2-4-5--5-|-----------5-2-0-2--|
D|-----------|----------|--------------------|
A|-----------|----------|--------------------|
E|-----------|----------|--------------------|

E|-----------|----------|-5-5--|
B|-------3-5-|------3---|-7-7--|
G|-2-4-5-----|-2-4-5--5-|-7-7--|
D|-----------|----------|------|
A|-----------|----------|------|
E|-----------|----------|------|

E|-----------|-----------|----------|-------------------|
B|-------3-5-|-------3-5-|------3---|-3-4b5b4-3-------3-|
G|-2-4-5-----|-2-4-5-----|-2-4-5--5-|-----------5-2-0---|
D|-----------|-----------|----------|-------------------|
A|-----------|-----------|----------|-------------------|
E|-----------|-----------|----------|-------------------|

E|-----------|----------|---------|
B|-------3-5-|------3---|----3^*--|
G|-2-4-5-----|-2-4-5--5-|-5-------|
D|-----------|----------|---------| *= hartas veces
A|-----------|----------|---------| *= no toy seguro de esto
E|-----------|----------|---------|

||-----------|-----------|--------------------|--------------------|
E|-------3-5--|-------3-5-|------3-------------|-3-4b5b4-3----------|
B|-2-4-5------|-2-4-5-----|-2-4-5--5-----------|-----------5-2-0-2--|
||-----------|-----------|--------------------|--------------------|
||-----------|-----------|--------------------|--------------------|
||-----------|-----------|--------------------|--------------------|

Coro
Con wah

E|-----------------|-----------------|
B|-5-3-------------|-5-3-------------|
G|-----5-2-0-2-7-5-|-----5-2-0-2-----|
D|-----------------|-----------------|
A|-----------------|-------------5-3-|
E|-----------------|-----------------|

E|-----------------|-----------------|
B|-5-3-------------|-5-3-------------|
G|-----5-2-0-2-7-5-|-----5-2-0-2-----|
D|-----------------|-----------------|
A|-----------------|-----------------|
E|-----------------|-----------------|

Verso 2

E|-----------|----------|-----------|
B|-------3-5-|------3---|-5-3-------|
G|-2-4-5-----|-2-4-5--5-|-----5-2-2-|
D|-----------|----------|-----------|
A|-----------|----------|-----------|
E|-----------|----------|-----------|

E|-----------|-----------|----------|-7-7-|
B|-------3-5-|-------3-5-|------3---|-5-5-|
G|-2-4-5-----|-2-4-5-----|-2-4-5--5-|-5-5-|
D|-----------|-----------|----------|-----|
A|-----------|-----------|----------|-----|
E|-----------|-----------|----------|-----|

E|-----------|-----------|----------|-----------|
B|-------3-5-|-------3-5-|------3---|-5-3-------|
G|-2-4-5-----|-2-4-5-----|-2-4-5--5-|-----5-2-2-|
D|-----------|-----------|----------|-----------|
A|-----------|-----------|----------|-----------|
E|-----------|-----------|----------|-----------|

E|-----------|-----------|----------|--------------------|
B|-------3-5-|-------3-5-|------3---|-3-4b5b4-3----------|
G|-2-4-5-----|-2-4-5-----|-2-4-5--5-|-----------5-2-0-2--|
D|-----------|-----------|----------|--------------------|
A|-----------|-----------|----------|--------------------|
E|-----------|-----------|----------|--------------------|

Coro
Con wah

E|-----------------|-----------------|
B|-5-3-------------|-5-3-------------|
G|-----5-2-0-2-7-5-|-----5-2-0-2-----|
D|-----------------|-----------------|
A|-----------------|-------------5-3-|
E|-----------------|-----------------|

Que es lo que te pasa...

E|-------------------------------------------------------------------|
B|-------------------------------------------------------------------|
G|-------------------------------------------------------------------|
D|-------------------------------------------------------------------|
A|-5-6-5-3-5-3-----3----------3----3-----------3-6-5-3-3-5-3-------3-|
E|-------------5-3---3-5-3--5--5-3---5-5-5-3-5---------------5-3-5---|

Verso 3

E|-----------|-----------|----------|-----------|
B|-------3-5-|-------3-5-|------3---|-5-3-------|
G|-2-4-5-----|-2-4-5-----|-2-4-5--5-|-----5-2-2-|
D|-----------|-----------|----------|-----------|
A|-----------|-----------|----------|-----------|
E|-----------|-----------|----------|-----------|


E|-----------|-----------|----------|-7-7-|
B|-------3-5-|-------3-5-|------3---|-5-5-|
G|-2-4-5-----|-2-4-5-----|-2-4-5--5-|-5-5-|
D|-----------|-----------|----------|-----|
A|-----------|-----------|----------|-----|
E|-----------|-----------|----------|-----|


E|-----------|-----------|----------|---------------------|
B|-------3-5-|-------3-5-|------3---|----3-4^-4^-4^-4^-5--|
G|-2-4-5-----|-2-4-5-----|-2-4-5--5-|-5-------------------|
D|-----------|-----------|----------|---------------------|
A|-----------|-----------|----------|---------------------|
E|-----------|-----------|----------|---------------------|

E|-----------|----------|--------------------|
B|-------3-5-|------3---|-3-4b5b4-3----------|
G|-2-4-5-----|-2-4-5--5-|-----------5-2-0-2--|
D|-----------|----------|--------------------|
A|-----------|----------|--------------------|
E|-----------|----------|--------------------|

Coro
Con wah

E|-----------------|-----------------|
B|-5-3-------------|-5-3-------------|
G|-----5-2-0-2-7-5-|-----5-2-0-2-----|
D|-----------------|-----------------|
A|-----------------|-------------5-3-|
E|-----------------|-----------------|


Que es lo que te pasa...

E|-------------------------------------------------------------------|
B|-------------------------------------------------------------------|
G|-------------------------------------------------------------------|
D|-------------------------------------------------------------------|
A|-5-6-5-3-5-3-----3----------3----3-----------3-6-5-3-3-5-3-------3-|
E|-------------5-3---3-5-3--5--5-3---5-5-5-3-5---------------5-3-5---|


Final

E|-------------------------|
B|-------------------------|
G|-------------------------|
D|-------------------------|
A|-----------------------3-|
E|-5-3-5-5-3-5-5-3-5-3-5---|


E|-----------------------------------------------------|
B|-----------------------------------------------------|
G|-----------------------------------------------------|
D|-------------------------------5-3-------------------|
A|-5-3-0-5-3-0-3-5-3-6-6-6-6-5-6-----6-5-3-5-6-5-3-----|
E|-------------------------------------------------(5)-| ()=Solo se toca la ultima vez.
Otros videos de esta canción
    137 exhibiciones
      • ½ Tono
      • A
      • Bb
      • B
      • C
      • Db
      • D
      • Eb
      • E
      • F
      • F#
      • G
      • Ab
    • Agregar a la lista

    Afinação da cifra

    Afinador online

      Ops (: Contenido disponible solo en portugués.
      OK