Cifra Club

Pictures of Home

Deep Purple

Tablatura: Principal (guitarra)
Tom: G
Intro:

  Bm              Bm           F#m Em     D     G      
|---------------|------------|----------|------------| 
|---------------|------------|----------|-------10^~-| 
|---------------|-7^---------|-9^--9~~~-|-7---7------| 
|-----------7-9-|----9-7-9~~-|----------|---9--------| 
|---5-7-7/9-----|------------|----------|------------| 
|-7-------------|------------|----------|------------|

  Bm              Bm            Bm|
|---------------|-------------|-----7-7-7-7-7-----7-7-7-7-7-|-----7------------------------| 
|---------------|-------------|-10^-----------10^-----------|-10^---10-7-------------------| 
|---------------|-7^----------|-----------------------------|------------10-9-7------------| 
|-----------7-9-|----9-7-9~~--|-----------------------------|-------------------9-7--------| 
|---5-7-7/9-----|-------------|-----------------------------|-----------------------9-7----| 
|-7-------------|-------------|-----------------------------|---------------------------10-|
 
  Bm                Bm                 Bm                 Bm
|-----------------|------------------|------------------|--------------| 
|-----------------|------------------|------------------|--------------| 
|-----------------|------------------|------------------|--------------| 
|-----------------|------------------|------------------|--------------| 
|-----------------|------------------|------------------|--------------| 
|-7---7-7-7---7-7-|-7----7-7-7--7--7-|-7-----7--7-----7-|-7---7-7--7-7-|
   Bm                 Bm               Bm                 Bm
  Somebody's shouting up at a mountain only my own words return

  Bm                Bm               Bm                D
|-----------------|----------------|-----------------|--------------| 
|-----------------|----------------|-----------------|--------------| 
|-----------------|----------------|-----------------|--------------| 
|-----------------|----------------|-----------------|--------------|
|-----------------|----------------|-----------------|-5---5--5-5-5-| 
|-7---7-7-7---7-7-|-7---7-7-7--7-7-|-7----7-7-7--7-7-|--------------|
   Bm               Bm                 Bm              D   Em    
  Nobody's up there it's a deception when will I ever le...arn?

  Em                Bm                  Em                  Bm
|-----------------|-------------------|-------------------|-------------------| 
|-----------------|-------------------|-------------------|-------------------| 
|-----------------|-------------------|-------------------|-------------------| 
|-----------------|-------------------|-------------------|-------------------| 
|-7--7-7-7-7--7-7-|-------------------|-7--7-7-7-7--7-7-7-|-------------------| 
|-----------------|-7--7-7-7-7--7-7-7-|-------------------|-7--7-7-7-7--7-7-7-|
        Bm        Em                         Bm
  I'm alone here with emptiness eagles and snow

  Em                  Bm                  C5       D5         G5
|-------------------|-------------------|-------------------|-------------------| 
|-------------------|-------------------|-------------------|-------------------| 
|-------------------|-------------------|-------------------|-------------------| 
|-------------------|-------------------|-5--------7--------|-------------------| 
|-7--7-7-7-7--7-7-7-|-------------------|-3--3-3-3-5--5-5-5-|-------------------| 
|-------------------|-7--7-7-7-7--7-7-7-|-------------------|-3--3-3-3-3--3-3-3-| 
    Em                      Bm        C5        D5          G5
  Friendliness chilling my body And whispering pictures of home

  F#m               F#m               F#m               F#m               F#m          
|-----------------|-----------------|-----------------|-----------------|-------7-----| 
|-----------------|-----------------|-----------------|-----------------|-7--7--------| 
|-----------------|-----------------|-----------------|-----------------|-------------| 
|-----------------|-----------------|-----------------|-----------------|-------------| 
|-----------------|-----------------|-----------------|-----------------|-------------| 
|-2-2-2-2-2-2-2-2-|-2-2-2-2-2-2-2-2-|-2-2-2-2-2-2-2-2-|-2-2-2-2-2-2-2-2-|-------------| 

  Bm              Bm           F#m Em     D     G      
|---------------|------------|----------|------------| 
|---------------|------------|----------|-------10^~-| 
|---------------|-7^---------|-9^--9~~~-|-7---7------| 
|-----------7-9-|----9-7-9~~-|----------|---9--------| 
|---5-7-7/9-----|------------|----------|------------| 
|-7-------------|------------|----------|------------|

  Bm              Bm            Bm|
|---------------|-------------|-----7-7-7-7-7-----7-7-7-7-7-|-----7------------------------| 
|---------------|-------------|-10^-----------10^-----------|-10^---10-7-------------------| 
|---------------|-7^----------|-----------------------------|------------10-9-7------------| 
|-----------7-9-|----9-7-9~~--|-----------------------------|-------------------9-7--------| 
|---5-7-7/9-----|-------------|-----------------------------|-----------------------9-7----| 
|-7-------------|-------------|-----------------------------|---------------------------10-|
 
  Bm                Bm                 Bm                 Bm
|-----------------|------------------|------------------|--------------| 
|-----------------|------------------|------------------|--------------| 
|-----------------|------------------|------------------|--------------| 
|-----------------|------------------|------------------|--------------| 
|-----------------|------------------|------------------|--------------| 
|-7---7-7-7---7-7-|-7----7-7-7--7--7-|-7-----7--7-----7-|-7---7-7--7-7-|
   Bm                Bm                   Bm                    Bm
  Wondering blindly how can they find me maybe they don't even now
 
  Bm                Bm               Bm                D
|-----------------|----------------|-----------------|--------------| 
|-----------------|----------------|-----------------|--------------| 
|-----------------|----------------|-----------------|--------------| 
|-----------------|----------------|-----------------|--------------|
|-----------------|----------------|-----------------|-5---5--5-5-5-| 
|-7---7-7-7---7-7-|-7---7-7-7--7-7-|-7----7-7-7--7-7-|--------------|
   Bm                Bm                Bm                        Bm Em
  My body is shaking anticipating the call of the black foo-ted croooown 

  Em                Bm                  Em                  Bm
|-----------------|-------------------|-------------------|-------------------| 
|-----------------|-------------------|-------------------|-------------------| 
|-----------------|-------------------|-------------------|-------------------| 
|-----------------|-------------------|-------------------|-------------------| 
|-7--7-7-7-7--7-7-|-------------------|-7--7-7-7-7--7-7-7-|-------------------| 
|-----------------|-7--7-7-7-7--7-7-7-|-------------------|-7--7-7-7-7--7-7-7-|
         Bm        Em                         Bm
   I'm alone here with emptiness eagles and snow

  Em                  Bm                  C5       D5         G5
|-------------------|-------------------|-------------------|-------------------| 
|-------------------|-------------------|-------------------|-------------------| 
|-------------------|-------------------|-------------------|-------------------| 
|-------------------|-------------------|-5--------7--------|-------------------| 
|-7--7-7-7-7--7-7-7-|-------------------|-3--3-3-3-5--5-5-5-|-------------------| 
|-------------------|-7--7-7-7-7--7-7-7-|-------------------|-3--3-3-3-3--3-3-3-| 
   Em                       Bm        C5        D5          G5
  Friendliness chilling my body And whispering pictures of home 

  F#m               F#m               F#m               F#m               F#m          
|-----------------|-----------------|-----------------|-----------------|-------7-----| 
|-----------------|-----------------|-----------------|-----------------|-7--7--------| 
|-----------------|-----------------|-----------------|-----------------|-------------| 
|-----------------|-----------------|-----------------|-----------------|-------------| 
|-----------------|-----------------|-----------------|-----------------|-------------| 
|-2-2-2-2-2-2-2-2-|-2-2-2-2-2-2-2-2-|-2-2-2-2-2-2-2-2-|-2-2-2-2-2-2-2-2-|-------------|




SOLO:
  Bm                         Bm              Bm                          Bm
|-----------7-------------|----------------|-----7---------------------|----------------| 
|-10^--10^----10-9-7------|----------------|-10^---10-9-7--------------|----------------|
|--------------------10-9-|7----9-7---7~~~-|--------------10-9-7---9-7-|---9-7---7-7-7~-|
|-------------------------|--9------9------|---------------------9-----|-9-----9--------| 
|-------------------------|----------------|---------------------------|----------------| 
|-------------------------|----------------|---------------------------|----------------| 

 Bm             Bm                              Bm
|--------------|-------------------------------|-------------------------------| 
|--------------|-------------------------------|-------------------------------| 
|6^-6^--6-4---4|6p4---4-6p4---4-6p4---4-6p4---4|6p4---4-6p4---4-6p4---4-6p4---4| 
|-----------6--|----6-------6-------6-------6--|-----6-------6-------6-------6-|
|--------------|-------------------------------|-------------------------------|
|--------------|-------------------------------|-------------------------------| 

 Bm                                Bm                          Bm
|--------------------------------|---------------------------|----------------7-----7-7-----7-| 
|--------------------------------|---------------------------|--------------7---10^-----10^---| 
|6p4---4-6p4---4-6p4---4-6p4---4-|-4---4-6-4-6-7p6p4-9-7---7-|-9p7---7-9-10-------------------|
|----6-------6-------6-------6---|---6-------------------9---|-----9--------------------------| 
|--------------------------------|---------------------------|--------------------------------| 
|--------------------------------|---------------------------|--------------------------------|

   Bm                                        Bm
|-10p9p7----7-10p7----7-10p7----7-10p7----|-10^-10^-10^-10^-10^-10^-| 
|--------10--------10--------10--------10-|-------------------------| 
|-----------------------------------------|-------------------------| 
|-----------------------------------------|-------------------------| 
|-----------------------------------------|-------------------------| 
|-----------------------------------------|-------------------------| 

| Bm  hold bend                        | Bm
|-10^-10-10-10-10-10-10-10-10-10-10-10-|-10^-10^-10^-10b12r(10)-10-7----|
|--------------------------------------|-----------------------------10-| 
|--------------------------------------|--------------------------------| 
|--------------------------------------|--------------------------------| 
|--------------------------------------|--------------------------------| 
|--------------------------------------|--------------------------------| 

  Bm                            Bm                         Bm
|-------7----7-8-7-8-9p8p7----|-------------10-------12^-|-14-----14-14-----14-----15----14-14-| 
|-7---7---10---------------10-|----10-11-12----12-10-----|----17^-------19^----19^----19^------| 
|---9-------------------------|-11-----------------------|-------------------------------------| 
|-----------------------------|--------------------------|-------------------------------------| 
|-----------------------------|--------------------------|-------------------------------------| 
|-----------------------------|--------------------------|-------------------------------------|

  Bm                                          Bm
|-----14-14-----14-----14-----14-----14-----|-14-----14-14-----14-----14-----14-14----| 
|-17^-------17^----17^----17^----17^----17^-|----17^-------17^----17^----17^-------17^| 
|-------------------------------------------|-----------------------------------------| 
|-------------------------------------------|-----------------------------------------| 
|-------------------------------------------|-----------------------------------------| 
|-------------------------------------------|-----------------------------------------| 

  Bm                                                F#5           E5
|-14-14-----14-14-----14-14-----14-14-17b19r(17)^-|-17^-17^-17^-|-17^-17^-17^-17^~-| 
|-------17^-------17^-------17^-------------------|-------------|------------------| 
|-------------------------------------------------|-------------|------------------| 
|-------------------------------------------------|-------------|------------------| 
|-------------------------------------------------|-------------|------------------| 
|-------------------------------------------------|-------------|------------------| 

  D5                                      | G                       hold bend      | 
|-----19-19-----19-19-----19-19-----19-19-|-----19-19-----19-19--------------------| 
|-22^-------22^-------22^-------22^-------|-22^-------22^-------22^-22-22-22-22-22-|
|-----------------------------------------|----------------------------------------| 
|-----------------------------------------|----------------------------------------| 
|-----------------------------------------|----------------------------------------| 
|-----------------------------------------|----------------------------------------| 

  F#5                       F#5
|-------------------------|-17^-(17)-14-14-------------14----------| 
|-22^-22^-22^-22^-22^-22^-|----------------17-14----14----17-14-14-| 
|-------------------------|----------------------16----------------| 
|-------------------------|----------------------------------------| 
|-------------------------|----------------------------------------| 
|-------------------------|----------------------------------------| 

  F#5                                   F#5
|-------------------------------------|-----------|
|-------------------------------------|-----------| 
|-17-16-14----16-14-------------------|-----------| 
|----------16-------16-14----16-14-16-|-16--19~~~-| 
|-------------------------16----------|-----------| 
|-------------------------------------|-----------|


  Bm                Bm                 Bm                 Bm
|-----------------|------------------|------------------|--------------| 
|-----------------|------------------|------------------|--------------| 
|-----------------|------------------|------------------|--------------| 
|-----------------|------------------|------------------|--------------| 
|-----------------|------------------|------------------|--------------| 
|-7---7-7-7---7-7-|-7----7-7-7--7--7-|-7-----7--7-----7-|-7---7-7--7-7-|
   Bm                 Bm                Bm                    Bm
  Here in this prison of my own making year after day I have grow

  Bm                Bm               Bm                D
|-----------------|----------------|-----------------|--------------| 
|-----------------|----------------|-----------------|--------------| 
|-----------------|----------------|-----------------|--------------| 
|-----------------|----------------|-----------------|--------------|
|-----------------|----------------|-----------------|-5---5--5-5-5-| 
|-7---7-7-7---7-7-|-7---7-7-7--7-7-|-7----7-7-7--7-7-|--------------|
  Bm           Bm                      Bm                   Bm Em
  Into a hero but there's no worship where they hidden my throooow

  Em                Bm                  Em                  Bm
|-----------------|-------------------|-------------------|-------------------| 
|-----------------|-------------------|-------------------|-------------------| 
|-----------------|-------------------|-------------------|-------------------| 
|-----------------|-------------------|-------------------|-------------------| 
|-7--7-7-7-7--7-7-|-------------------|-7--7-7-7-7--7-7-7-|-------------------| 
|-----------------|-7--7-7-7-7--7-7-7-|-------------------|-7--7-7-7-7--7-7-7-|
         Bm        Em                         Bm
   I'm alone here with emptiness eagles and snow

  Em                  Bm                  C5       D5         G5
|-------------------|-------------------|-------------------|-------------------| 
|-------------------|-------------------|-------------------|-------------------| 
|-------------------|-------------------|-------------------|-------------------| 
|-------------------|-------------------|-5--------7--------|-------------------| 
|-7--7-7-7-7--7-7-7-|-------------------|-3--3-3-3-5--5-5-5-|-------------------| 
|-------------------|-7--7-7-7-7--7-7-7-|-------------------|-3--3-3-3-3--3-3-3-| 
   Em                       Bm        C5        D5          G5
  Friendliness chilling my body And whispering pictures of home 

  F#m               F#m               F#m               F#m           
|-----------------|-----------------|-----------------|-----------------| 
|-----------------|-----------------|-----------------|-----------------| 
|-----------------|-----------------|-----------------|-----------------| 
|-----------------|-----------------|-----------------|-----------------| 
|-----------------|-----------------|-----------------|-----------------| 
|-2-2-2-2-2-2-2-2-|-2-2-2-2-2-2-2-2-|-2-2-2-2-2-2-2-2-|-2-2-2-2-2-2-2-2-| 


 Aqui começa os SOLOs do Jon e do Roger 

  Bm               Bm               Bm               Bm
|----------------|----------------|----------------|----------------| 
|----------------|----------------|----------------|----------------| 
|----------------|----------------|----------------|----------------| 
|----------------|----------------|----------------|----------------| 
|----------------|----------------|----------------|----------------| 
|----------------|----------------|----------------|----------------|
  Bm               Bm               Bm               Bm
|----------------|----------------|----------------|----------------| 
|----------------|----------------|----------------|----------------| 
|----------------|----------------|----------------|----------------| 
|----------------|----------------|----------------|----------------| 
|----------------|----------------|----------------|----------------| 
|----------------|----------------|----------------|----------------|
  Bm               Bm               Bm               Bm
|----------------|----------------|----------------|----------------| 
|----------------|----------------|----------------|----------------| 
|----------------|----------------|----------------|----------------| 
|----------------|----------------|----------------|----------------| 
|----------------|----------------|----------------|----------------| 
|----------------|----------------|----------------|----------------|
  Bm               Bm               Bm               Bm
|----------------|----------------|----------------|----------------| 
|----------------|----------------|----------------|----------------| 
|----------------|----------------|----------------|----------------| 
|----------------|----------------|----------------|----------------| 
|----------------|----------------|----------------|----------------| 
|----------------|----------------|----------------|----------------|
  Bm               Bm               Bm               Bm
|----------------|----------------|----------------|----------------| 
|----------------|----------------|----------------|----------------| 
|----------------|----------------|----------------|----------------| 
|----------------|----------------|----------------|----------------| 
|----------------|----------------|----------------|----------------| 
|----------------|----------------|----------------|----------------|
  F#5              E5               D5               G
|----------------|----------------|----------------|----------------| 
|----------------|----------------|----------------|----------------| 
|----------------|----------------|----------------|----------------| 
|----------------|----------------|----------------|----------------| 
|----------------|----------------|----------------|----------------| 
|----------------|----------------|----------------|----------------|
  F#5              F#5              F#5              F#5
|----------------|----------------|----------------|----------------| 
|----------------|----------------|----------------|----------------| 
|----------------|----------------|----------------|----------------| 
|----------------|----------------|----------------|----------------| 
|----------------|----------------|----------------|----------------| 
|----------------|----------------|----------------|----------------|
 


|----------------|----------------|----------------|----------------| 
|----------------|----------------|----------------|----------------| 
|----------------|----------------|----------------|----------------| 
|----------------|----------------|----------------|----------------| 
|----------------|----------------|----------------|----------------| 
|----------------|----------------|----------------|----------------|

|----------------|----------------|----------------|----------------| 
|----------------|----------------|----------------|----------------| 
|----------------|----------------|----------------|----------------| 
|----------------|----------------|----------------|----------------| 
|----------------|----------------|----------------|----------------| 
|----------------|----------------|----------------|----------------|


 
  Bm              Bm           F#m Em     D     G      
|---------------|------------|----------|------------| 
|---------------|------------|----------|-------10^~-| 
|---------------|-7^---------|-9^--9~~~-|-7---7------| 
|-----------7-9-|----9-7-9~~-|----------|---9--------| 
|---5-7-7/9-----|------------|----------|------------| 
|-7-------------|------------|----------|------------|

  Bm              Bm
|---------------|-------------|----------------------6-|-----5-----4----|
|---------------|-------------|-----------------8------|-------4-3------| 
|---------------|-7^----------|-----------8------------|-3-2------------| 
|-----------7-9-|----9-7-9~~--|-----9-------------4-3--|----------------| 
|---5-7-7/9-----|-------------|-------------5-4--------|----------------| 
|-7-------------|-------------|-7-6---6-5--------------|----------------|


  Bm       Bm              Bm                 Bm           Bm
|--------|---------------|------------------|------------|----------|
|---10^~-|---10^-10^-10^-|-10^~--10^~--10^~-|---10--9--7-|----------|
|--------|---------------|------------------|------------|-9^~~~~~~-| 
|--------|---------------|------------------|------------|----------|
|--------|---------------|------------------|------------|----------|
|--------|---------------|------------------|------------|----------| 

  Bm        Bm                    Bm                  Bm
|---------|---------------------|-------------------|-------------| 
|---------|---------------------|-------------------|-------------| 
|---9-7-6-|-7-6h7p6\4-6-4h6p4\2-|-4-2h4p2-0---------|-------------| 
|---------|---------------------|------------7-4----|-5-4---4-----| 
|---------|---------------------|-----------------7-|-----7---5-7-| 
|---------|---------------------|-------------------|-------------| 

  Bm            Bm        Bm        Bm               Bm           Bm
|-------------|---------|---------|----------------|------------|------------| 
|-------------|---------|---------|----------------|------------|------------|
|-------------|---------|---------|----------------|-----7-9-9^-|-(9)--------| 
|-------------|---------|---------|----------------|-7-9--------|------------| 
|-5-4-5-4-----|---------|---------|-5-4-47-5-7/9-7-|------------|------------| 
|---------7-5-|-7~~~-5--|-7~~-5-7-|----------------|------------|------------| 

  Bm       Bm             Bm                Bm               Bm
|--------|--------------|----------7------|----------------|-----------| 
|---7-10-|-10^~~--10^---|---10^~~----7-10-|----------------|-----------| 
|--------|------------9-|-9---------------|-9^~~~~---------|-(9)----11-| 
|--------|--------------|-----------------|----------------|-----------| 
|--------|--------------|-----------------|----------------|-----------| 
|--------|--------------|-----------------|----------------|-----------|

  Bm                                    Bm
|-------------------------------------|-------------------------------------| 
|-10----10-10----10-10----10-10----10-|-10----10-10----10-10----10-10----10-| 
|----11-------11-------11-------11----|----11-------11-------11-------11----| 
|-------------------------------------|-------------------------------------| 
|-------------------------------------|-------------------------------------|
|-------------------------------------|-------------------------------------| 

  Bm                                Bm                        Bm
|---10-10----10-10----10-10----10-|-------------------------|----------------| 
|-11------11-------11-------11----|---8---7---7-------------|----------------| 
|---------------------------------|-9---9---7---6-9---9-6---|-9-7------------| 
|---------------------------------|-----------------9-----9-|-----9-9--7/9~~-| 
|---------------------------------|-------------------------|----------------| 
|---------------------------------|-------------------------|----------------| 

  Bm                         Bm                        Bm
|--------------------------|-------------------------|--------------------7-----| 
|-7-10---8---7-------------|-------------------------|------------------7---10^-| 
|------9---9---7-9-7---7---|-9-7---------------------|-7---9-7---7-9-10---------| 
|--------------------9---9-|-----9-8-7-9-7---9-7-8-9-|---9-----9----------------| 
|--------------------------|---------------9---------|--------------------------|
|--------------------------|-------------------------|--------------------------| 

  Bm               Bm               Bm             Bm
|--------12^-12^-|-12^~~-12-10-12-|-----------10-|---12~~-| 
|(10)~~----------|----------------|-12~-10-12----|--------| 
|----------------|----------------|--------------|--------| 
|----------------|----------------|--------------|--------| 
|----------------|----------------|--------------|--------| 
|----------------|----------------|--------------|--------|
 
reproducciones 843
Acordes para:

    0 comentarios

    mostrar más comentarios

    ¿Conseguiste tocar?

    0 tocaron 0 aún no

    ¡Graba un vídeo tocando Pictures of Home y envianoslo!

    00:00 / 00:00
    outros vídeos desta música
    repetir qualidade Automático
    Outros vídeos desta música
    00:00 / 00:00
    Automático
    OK