Cifra Club

Good Riddance (Time Of Your Life)

Green Day

Chords: Principal (acoustic and electric guitars)
tone: G
[Intro] G5 C9 D5 
        G5 C9 D5 

[Primeira Parte]

Parte 1 de 4
 G5
E|------------------------------------------|
B|-----3-------------3----------------------|
G|-------0---0---------0---0----------------|
D|---0-----0-------0-----0------------------|
A|------------------------------------------|
E|-3-------------3--------------------------|

Parte 2 de 4
   C9            D5
E|------------------------------------------|
B|-----3-------------3----------------------|
G|-------0---0---------2---2----------------|
D|---0-----0-----0-0-----0------------------|
A|-3----------------------------------------|
E|------------------------------------------|

Parte 1 de 4
   G5
E|------------------------------------------|
B|-----3-------------3----------------------|
G|-------0---0---------0---0----------------|
D|---0-----0-------0-----0------------------|
A|------------------------------------------|
E|-3-------------3--------------------------|

Parte 2 de 4
   C9            D5
E|------------------------------------------|
B|-----3-------------3----------------------|
G|-------0---0---------2---2----------------|
D|---0-----0-----0-0-----0------------------|
A|-3----------------------------------------|
E|------------------------------------------|

Parte 3 de 4
   Em            D5
E|------------------------------------------|
B|-----0-------------3----------------------|
G|-------0---0---------2---2----------------|
D|---2-----2-----0-0-----0------------------|
A|------------------------------------------|
E|-0----------------------------------------|

Parte 4 de 4
 C             G
E|------------------------------------------|
B|-----1-------------3----------------------|
G|-------0---0---------0---0----------------|
D|---0-----0-------0-----0------------------|
A|-3----------------------------------------|
E|---------------3--------------------------|

G5                          C9                D5
   Another turning point a fork stuck in the road
G5                                 C9                 D5
   Time grabs you by the wrist, directs you where to go
Em              D5           C                   G5
   So make the best of this test and don't ask why
Em              D5            C                 G5
   It's not a question but a lesson learned in time
      Em             G5          Em             G5
It's something unpredictable but in the end is right
   Em               D5
I hope you had the time of your life

( G  C9  D ) 
( G  C9  D )

[Segunda Parte]

G                               C9                  D
  So take the photographs and still frames in your mind
G                        C9                   D
  Hang it on a shelf in good health and good time
Em             D            C             G
   Tattoos of memories and dead skin on trial
Em                D            C              G
   For what it's worth it was worth all the while

[Refrão]

[Tab - Refrão]

Parte 1 de 2
 Em            G5
E|------------------------------------------|
B|-----0-------------3----------------------|
G|-------0---0---------0---0----------------|
D|---2-----2-------0-----0------------------| (2x)
A|------------------------------------------|
E|-0-------------3--------------------------|

Parte 2 de 2
 Em            D5
E|------------------------------------------|
B|-----0-------------3----------------------|
G|-------0---0---------2---2----------------|
D|---2-----2-----0-0-----0------------------|
A|------------------------------------------|
E|-0----------------------------------------|

      Em             G           Em             G
It's something unpredictable but in the end is right
   Em               D            G
I hope you had the time of your life

( G  C9  D )
( G  C9  D )
( G  C9  D )
( G  C9  D )
( Em  D  C  G ) 
( Em  D  C  G )

[Refrão]

      Em             G           Em             G
It's something unpredictable but in the end is right
   Em               D            G
I hope you had the time of your life

( G  C9  D ) 
( G  C9  D ) 

[Refrão]

        Em              G5       Em             G5
It's something unpredictable but in the end is right
   Em               D            G5
I hope you had the time of your life

[Final] G5  C9  D5
        G5  C9  D5  G5
00:00 / 00:00
Other videos of this song
Repeat
Other videos of this song
57.286 views
  • Simplify chords
    • ½ Tone
    • A
    • Bb
    • B
    • C
    • Db
    • D
    • Eb
    • E
    • F
    • F#
    • G
    • Ab
  • Add to list

Afinação da cifra

Afinador online

    00:00 / 00:00
    Chapters
    • Início
    • Tocando trecho da música
    • Acordes da primeira parte
    • Tocando primeira parte
    • Ensinando ritmo (parte 1)
    • Ensinando ritmo (parte 2)
    • Ensinando ritmo (parte 3 - refrão)
    • Acordes da segunda parte
    • Tocando segunda parte
    • Ensinando ritmo da segunda parte
    • Encerramento
    OK